Treble Charger - Soaker Chords & Tabs

 

Soaker Chords & Tabs

Treble Charger Chords & Tabs

Version: 1 Type: Tab 0 ratings
1 star 2 stars 3 stars 4 stars 5 stars
comments

Soaker Tab

   
Hey,
This is the intro of the song.
I might work out the rest of the song some other time, for now, enjoy!

Key:
h=Hammer-on
b=Bend

Intro:
E|--------------------------------------|
B|--------------------------------------|
G|--------------------------------------|
D|-4-6-6-6-4h6-6-6-6-4h6-6-6--7-7-6-4-2-| Repeat that a couple times
A|--------------------------------------|
E|--------------------------------------|
[ Tab from: http://www.guitartabs.cc/tabs/t/treble_charger/soaker_tab.html ]
After intro/Verse:
E|----------------------------|
B|------------10-10--10-10-10-|
G|----------------------------|
D|-9-9--9-9-9-----------------|
A|-7-7--7-7-7-----------------|
E|----------------------------|

I think the bit after the Chorus goes something like this:

E|----------------4---|-7b---4b----|
B|-----------4--7---7-|------------|
G|-------4-6----------|------------|
D|-4--6---------------|------------|
A|--------------------|------------|
E|--------------------|------------|
Comments