Treble Charger - Red Chords & Tabs

 

Red Chords & Tabs

Treble Charger Chords & Tabs

Version: 1 Type: Bass Tab 0 ratings
1 star 2 stars 3 stars 4 stars 5 stars
comments

Red Bass Tab

The attached tab is a correction of Red by Treble charger.
Treble charger - Red

No Bass For First Part Of Intro

Last Part Of Intro
G|------------|
D|------------|
A|3-----5---3-|
E|----3---5---|

Chorus
G|----------------|
D|----------------|
A|----3-------3---|
E|3-------0-------|
[ Tab from: http://www.guitartabs.cc/tabs/t/treble_charger/red_btab.html ]
Verse
G|--------------------------|
D|--------------------------|
A|----5-----------5-------3-|
E|3-------5---3-------5-----|

Close On An Open E.

This tab was originally posted by Rattman.

I have a few corrections that sound better in the song.
This may not look right but i broke the song down 
and played along with it.

Comments/Questions: snoman@attcanada.net 
Comments