Treble Charger - Morale Chords & Tabs

 

Morale Chords & Tabs

Treble Charger Chords & Tabs

Version: 2 Type: Tab 0 ratings
1 star 2 stars 3 stars 4 stars 5 stars
comments

Morale Tab

Treble Charger-"Morale"
from the album "Self=Title", 1996.
words and music by Greig Nori, Rosie Martin, Bill Priddle,
                   Morris Palter
tabbed by: Jd Dude

Intro-Fig. 1
Gtrs. 1&2
Play six times
|-2--2----2--2----0--0----0--0----2--2----2--2----3--3----3--3-----|
|-3--3----3--3----2--0----2--0----3--2----3--2----0--0----0--0-----|
|-2--0----2--0----2--2----2--2----4--4----4--4----2--0----2--0-----|
|-0--0----0--0----2--2----2--2----4--4----4--4----0--0----0--0-----|
|-----------------0--0----0--0----4--4----4--4----2--2----2--2-----|
|-------------------------------------------------3--3----3--3-----|


Chorus-Fig. 2
Gtrs. 1&2
|-5-5-5---3---0------5-5-5---3---0------5-5-5---3---3---3-3-3-3----|
|-8-8-8---6---3------8-8-8---6---3------8-8-8---6---6---6-6-6-6----|
|-7-7-7---5---2------7-7-7---5---2------7-7-7---5---5---5-5-5-5----|
|-5-5-5---3---0------5-5-5---3---0------5-5-5---3---3---3-3-3-3----|
|-5-5-5---3---0------5-5-5---3---0------5-5-5---3---3---3-3-3-3----|
|------------------------------------------------------------------||-3-3------5-5-5---3---3---3-3-3-3---------------------------------|
|-6-6------8-8-8---6---6---6-6-6-6---------------------------------|
|-5-5------7-7-7---5---5---5-5-5-5---------------------------------|
|-3-3------5-5-5---3---3---3-3-3-3---------------------------------|
|-3-3------5-5-5---3---3---3-3-3-3---------------------------------|
|------------------------------------------------------------------|


Fig. 3
Gtr. 1
Play four times
|-5-5-5--0--0-0-0-- 7- 7- 7--3--3-3-x--|--5-5-5-5------------------|
|-8-8-8--3--3-3-3--10-10-10--6--6-6-x--|--8-8-8-8------------------|
|-7-7-7--2--2-2-2-- 9- 9- 9--5--5-5-x--|--7-7-7-7------------------|
|-5-5-5--0--0-0-0-- 7- 7- 7--3--3-3-0--|--5-5-5-5------------------|
|-5-5-5--0--0-0-0-- 7- 7- 7--3--3-3-0--|--5-5-5-5------------------|
|--------------------------------------|---------------------------|

[ Tab from: http://www.guitartabs.cc/tabs/t/treble_charger/morale_tab_ver_2.html ]
Gtr. 2
|------------------------------------------------------------------|
|------------------------------------------------------------------|
|-4-4-4-2---2-2-2--/7-7-7-5--2--0-4-4-4-2---2-2-2--/7-7-7-5--2--0--|
|------------------------------------------------------------------|
|------------------------------------------------------------------|
|------------------------------------------------------------------|

|------------------------------------------------------------------|
|------------------------------------------------------------------|
|-4-4-4-2---2-2-2--/7-7-7-5--2--0-4-4-4-4--------------------------|
|------------------------------------------------------------------|
|------------------------------------------------------------------|
|------------------------------------------------------------------|


Interlude-Fig. 4
Gtr. 1
Play ten times
|-1-1-1-1-1-1-1-0-3-3-3-3-3-3-3-3----------------------------------|
|-3-3-3-3-3-3-3-0-0-0-0-0-0-0-0-0----------------------------------|
|-2-2-2-2-2-2-2-0-0-0-0-0-0-0-0-0----------------------------------|
|-0-0-0-0-0-0-0-0-0-0-0-0-0-0-0-0----------------------------------|
|-----------------2-2-2-2-2-2-2-2----------------------------------|
|-----------------3-3-3-3-3-3-3-3----------------------------------|


Outro-Fig. 5
Gtr. 1 w/ dist.
Play 8 times
|-------------------------------------|----------------------------|
|-------------------------------------|----------------------------|
|-7-7-7-7-7-7-7-x---------------------|--7-------------------------|
|-7-7-7-7-7-7-7-0-5-5-5-5-5-5-5-5-----|--7-------------------------|
|-5-5-5-5-5-5-5-0-5-5-5-5-5-5-5-5-----|--5-------------------------|
|-----------------3-3-3-3-3-3-3-3-----|----------------------------|


Gtr. 2
Play 7 times
|------------------------------------------------------------------|
|-15-15-15-15-15-13-13-12-12-12-12-13-13-13-15-15------------------|
|------------------------------------------------------------------|
|------------------------------------------------------------------|
|------------------------------------------------------------------|
|------------------------------------------------------------------|

|------------------------------------------------------------------|
|-12-12-12-12-12-12-12-12-12-12-12-12-12-12-12-12-12---------------|
|------------------------------------------------------------------|
|------------------------------------------------------------------|
|------------------------------------------------------------------|
|------------------------------------------------------------------|

====
Comments