Treble Charger - I Dont Know Chords & Tabs

 

I Dont Know Chords & Tabs

Treble Charger Chords & Tabs

Version: 1 Type: Bass Tab 0 ratings
1 star 2 stars 3 stars 4 stars 5 stars
comments

I Dont Know Bass Tab

Song Title- I Don't Know
Artist-Treble Charger
Tabbed by Jd_dude

Verse-I know that i have to sleep....

|----------------
|--------0-0-0-0-
|0-0-0-0--------- 
|----------------

Prechorus-i think ive been cast in the wrong play

|------------------------------------
|------------------------------------
|0---0--0-0--------0---0--0----------
|----------1---1--1----------1---1--1-

Chorus-I can see theres nothin out there
[ Tab from: http://www.guitartabs.cc/tabs/t/treble_charger/i_dont_know_btab.html ]
|---------------------------------
|---------------------------------
|-0-0-0-0-------------------------
|---------3-3-3-3-2-2-2-2-1-1-1-1-

2nd Chorus-All at once....

|----------------------------------------------------------------------
|0-0-0-0-------------------------0-0-0-0-------------------------------
|--------0-0-0-0-------------------------0-0-0-0-----------------------
|----------------3-3-3-3-2-2-2-2-----------------3-3-3-3-1-1-1-1-1-1-1-

|-----------------------
|-----------------------
|0~~~~~~~~~~0~~~~~~~~~~~
|-----------------------

Order of song:

Verse 8x
Prechorus 1x
Chorus 3x
Verse 4x
Prechorus 1x
Chorus 2x
2nd chorus 1x
CHorus til end
====
Comments