Treble Charger - Hundred Million Chords & Tabs

 

Hundred Million Chords & Tabs

Treble Charger Chords & Tabs

Version: 9 Type: Tab 0 ratings
1 star 2 stars 3 stars 4 stars 5 stars
comments

Hundred Million Tab

   
Yeah, soooooooooooooo here it is!

Tune your guitar down a half step (D,G#,C#,F#,A#,D) or
just dont play along with the song.

~~~Outline~~~

Intro
Verse
The Part That Sounds Like A Verse That Comes After The Part Above
Chorus
Intro
Verse
The Part That Sounds Like A Verse That Comes After The Part Above
Useless Bit
The Part That Sounds Sorta Like The Chorus But Isn't
Then
Sad Excuse For A Solo
Chorus
Sazzafrazz
Intro

~~~Intro (With Drums)~~~
----------------------------------------------
----------------------------------------------
----------------------------------------------
---------------------------------------------- x2
----------------------------------------------
---0-0-12-11-0-8-9-0-8-9-0-0-12-14-0-0-14-16--

~~~Verse~~~
-----------------------------------------------------
-----------------------------------------------------
-----------------------------------------------------
---2-2-2-2-2-2-2-2-2-2-2-2-2-2-2-2-2-2-2-2-2-2-2-2---   x2
---2-2-2-2-2-2-2-2-2-2-2-2-2-2-2-2-2-2-2-2-2-2-2-2---
---0-0-0-0-0-0-0-0-0-0-3-3-0-0-0-0-0-0-0-0-0-0-3-3---
PM . . . . . . . . . .     . . . . . . . . . .

~~~The Part That Sounds Like A Verse That Comes After The Part Above~~~
---------------------------------------------------------------------
---------------------------------------------------------------------
--------------------------------------------------------------------- 
---7-7-7-7-7-7-7-7-7-6-6-6-6-6-6-6-7-7-7-7-7-7-7-7-9-9-9-9-9-9-9-9--- x2
---7-7-7-7-7-7-7-7-7-6-6-6-6-6-6-6-7-7-7-7-7-7-7-7-9-9-9-9-9-9-9-9---
---5-5-5-5-5-5-5-5-5-4-4-4-4-4-4-4-5-5-5-5-5-5-5-5-7-7-7-7-7-7-7-7---
[ Tab from: http://www.guitartabs.cc/tabs/t/treble_charger/hundred_million_tab_ver_9.html ]
~~~Chorus~~~
--------------------------------------------------------------------
--------------------------------------------------------------------
-------------------------------------------------------------------- 
---14-14-x-9-10-11-x-x-5-4-5-4-14-14-x-9-10-11-11-11-11-14-14-14-14--- x2
---14-14-x-9-10-11-x-x-5-4-5-4-14-14-x-9-10-11-11-11-11-14-14-14-14---
---12-12-x-7-8--9--x-x-3-2-3-2-12-12-x-7-8--9--9--9--9--12-12-12-12---

~~~Useless Bit After The Chorus~~~
-------------------------------------------------------
-------------------------------------------------------
-------------------------------------------------------
-------------------------------------------------------
-------------------------------------------------------
-----12-12-12-12-12-12-12-12-12-12-12-12-12-12-12-12---

~~~The Part That Sounds Sorta Like The Chorus But Isn't~~~
------------------------------
------------------------------
------------------------------
---2-2-10-9-8-8-8-6-7-7-7-6--- x2
---2-2-10-9-8-8-8-6-7-7-7-6---
---0-0-8--7-6-6-6-4-5-5-5-4---

~~~Then~~~
---------------
---------------
---------------
---2-2-5-7-7--- x2
---2-2-5-7-7---
---0-0-3-5-5---

~~~Sad Excuse For A Solo~~~
-------------------------------------xxxxxxx---
---9-8-9-4-9-8-9-4-9-11-13-9-9-11-13-xxxxxxx---
-------------------------------------xxxxxxx---
------------ ------------------------xxxxxxx---
-------------------------------------xxxxxxx---
-------------------------------------xxxxxxx---

~~~Sazzafrazz~~~
------------------------------------------------------
------------------------------------------------------
------------------------------------------------------
---14-14-14-14-14-9-9-10-10-11-11-11-11-12-12-12-12---x2
---14-14-14-14-14-9-9-10-10-11-11-11-11-12-12-12-12---
---12-12-12-12-12-7-7-8--8--9--9--9--9--10-10-10-10---


Badda Bing Badda Boom --- Hundred Million!
Comments