Treble Charger - Hundred Million Chords & Tabs

 

Hundred Million Chords & Tabs

Treble Charger Chords & Tabs

Version: 7 Type: Tab 0 ratings
1 star 2 stars 3 stars 4 stars 5 stars
comments

Hundred Million Tab

   
Treble Charger
Hundred Million
Tuning : Eb Ab Db Gb Bb Eb
tab by : tim hunt
Theres parts misisng, and this might not even be right, but you can work from it.
any comments, or ANY corrections, email me,    guitim69@hotmail.com


Intro :
eb------------------------------------------------
Bb------------------------------------------------
gb-----------------------9-11---11-13-------------
db-----------------------x-x----x--x--------------
ab-----7-6---3-4---3-4---7/9----9/-11-------------
Eb-0-0-----0-----0-----0------0-------------------

Verse :
pm_________________
eb-------------------------------------------------
Bb-------------------------------------------------
gb-------------------7-7---------------------------
db--7-7-7-5-5-7-7-7--7-7---------------------------
ab--7-7-7-5-5-7-7-7--5-5---------------------------
Eb--5-5-5-3-3-5-5-5--------------------------------

1:36
[ Tab from: http://www.guitartabs.cc/tabs/t/treble_charger/hundred_million_tab_ver_7.html ]
eb-------------------------------------------------
Bb-------------------------------------------------
gb-------------------------------------------------
db-------------------------------------------------  lots of times
ab--7-7-7-7-7-7-7-7-7-7-7-7-7----------------------
Eb-------------------------------------------------

       1               played on top of first one
eb--------------------------3-5-7~-----------------
Bb-------------------------------------------------
Gb-------7-6-5-------------------------------------
Db---2-2-7-6-5-7-7-7-7-----------------------------
Ab---2-2-5-4-3-7-7-7-7-----------------------------
Eb---0-0-------5-5-5-5-----------------------------

eb-------------------------------------------------
Bb---5-4-5----------------------------------------- 
gb---------4---------------------------------------
db------------------------------------------------- 
ab-------------------------------------------------
Eb-------------------------------------------------
Comments