Treble Charger - Hundred Million Chords & Tabs

 

Hundred Million Chords & Tabs

Treble Charger Chords & Tabs

Version: 6 Type: Tab 0 ratings
1 star 2 stars 3 stars 4 stars 5 stars
comments

Hundred Million Tab

TREBLE CHARGER - HUNDRED MILLION


After I saw how crappy the rest of these tabs are... I tabbed it out myself to show you all how to PROPERLY play it!
Tabbed by: Jackson McCurlie (15 years old)
email me at jacksonicus@hotmail.com if you have any questions.



Intro/Bridge

Eb | ---------------------------------------------------------------------
Bb | ----------------------------------------------------------------------
Gb | ----------------------------------------------------------------------         x4
Db | -------2--1-------------------------------2--4---------4--6-------
Ab | ------------------3--4-----3--4-------------------------------------
Eb | 0--0---------0---------0---------0--0---------0--0---------------

Verse (muted)

Eb | -------------------------------------------------------
Bb | -------------------------------------------------------
Gb | ---------------------5-5-----------------------------       x4
Db | 22222222-2-2--5-5----------------------------
Ab | 22222222-2-2--3-3----------------------------
Eb | 00000000-0-0-----------------------------------

Pre-Chorus

Eb | -------------------------------------------------------
Bb | -------------------------------------------------------
Gb | 44444444444-----------------------------------
Db | 22222222222-----------------------------------
Ab | -------------------------------------------------------
Eb | -------------------------------------------------------

Chorus

Eb | ---------------------------------|-----------------------------------
Bb | ---------------------------------|-----------------------------------
Gb | ---------------------------------|-----------------------------------
Db | 2--------------------------------|--2--------------------2--2------   x2
Ab | ----1--2--3--4-----------------|-----1--2--3--4--0-------------
Eb | -------------------0--2--0--2--|-----------------------------------

Bridge

Eb | ---------------------------------------------------------------------
Bb | ----------------------------------------------------------------------
Gb | ----------------------------------------------------------------------         x2
Db | -------2--1-------------------------------2--4---------4--6-------
Ab | ------------------3--4-----3--4-------------------------------------
Eb | 0--0---------0---------0---------0--0---------0--0---------------

Verse (muted)

Eb | -------------------------------------------------------
Bb | -------------------------------------------------------
Gb | ---------------------5-5-----------------------------       x4
Db | 22222222-2-2--5-5----------------------------
Ab | 22222222-2-2--3-3----------------------------
Eb | 00000000-0-0-----------------------------------

Pre-Chorus
[ Tab from: http://www.guitartabs.cc/tabs/t/treble_charger/hundred_million_tab_ver_6.html ]
Eb | -------------------------------------------------------
Bb | -------------------------------------------------------
Gb | 44444444444-----------------------------------
Db | 22222222222-----------------------------------
Ab | -------------------------------------------------------
Eb | -------------------------------------------------------

Chorus

Eb | ---------------------------------|-----------------------------------
Bb | ---------------------------------|-----------------------------------
Gb | ---------------------------------|-----------------------------------
Db | 2--------------------------------|--2--------------------2--2------   x2
Ab | ----1--2--3--4-----------------|-----1--2--3--4--0-------------
Eb | -------------------0--2--0--2--|-----------------------------------


Eb | -------------------------------------------------------
Bb | -------------------------------------------------------
Gb | ------------------------------------------------------
Db | 2222222222222222--------------------------
Ab | -------------------------------------------------------
Eb | -------------------------------------------------------

Eb | -------------------------------------------------------
Bb | -------------------------------------------------------
Gb | ------7-6-5------------------------------------------
Db | 22--7-6-5----6-7-7-7-7-------------------------
Ab  | 22--5-4-3----6-7-7-7-7-------------------------
Eb  | 00-------------4-5-5-5-5-------------------------

Eb | ------------------------------------------------------
Bb | 5----4----5-----------------------------------------
Gb | ------------------4---555--------------------------
Db | -----------------------555--------------------------
Ab | ------------------------333--------------------------
Eb | -------------------------------------------------------

Chorus

Eb | --------------------------------- |-----------------------------------
Bb | --------------------------------- |-----------------------------------
Gb | ---------------------------------  |-----------------------------------   x2
Db | 2-------------------------------- |--2--------------------2--2-----
Ab | ----1--2--3--4----------------- |-----1--2--3--4--0-------------
Eb | -------------------0--2--0--2-- |-----------------------------------

(continued)

Eb | -------------------------------------------------------
Bb | -------------------------------------------------------
Gb |-------------------------------------------------------      x3
Db |--2--------------------2--2--------------------------
Ab |-----1--2--3--4--0-----------------------------------
Eb | -------------------------------------------------------

Ending

Intro/Bridge

Eb | ---------------------------------------------------------------------
Bb | ----------------------------------------------------------------------
Gb | ----------------------------------------------------------------------         x2
Db | -------2--1-------------------------------2--4---------4--6-------
Ab | ------------------3--4-----3--4-------------------------------------
Eb | 0--0---------0---------0---------0--0---------0--0---------------




The End, Enjoy the REAL way to play it...

-Jackson
Comments