Treble Charger - Hundred Million Chords & Tabs

 

Hundred Million Chords & Tabs

Treble Charger Chords & Tabs

Version: 5 Type: Tab 0 ratings
1 star 2 stars 3 stars 4 stars 5 stars
comments

Hundred Million Tab

INTRO
|--------------------------------------------------|
|--------------------------------------------------|
|--------------------------------------------------|
|--------------------------------------------------|   4X
|-----7-6---3-4---3-4-----7-9-----9-11-------------|
|-0-0-----0-----0-----0-0-----0-0------------------|

VERSE
|--------------------------------------------------|
|--------------------------------------------------|
|--------------------------------------------------|
|--------------------------------------------------|   4X
|-2-2-2-2-2-2-2-2----------------------------------|
|-0-0-0-0-0-0-0-0----------------------------------|

PRE-CHORUS
|--------------------------------------------------|
|--------------------------------------------------|
|--------------------------------------------------|
|-7-7-7-7-7-7-7-7--9-9-9-9-9-9-9-9-----------------|   2X
|-*-*-*-*-*-*-*-*--*-*-*-*-*-*-*-*-----------------|
|-5-5-5-5-5-5-5-5--7-7-7-7-7-7-7-7-----------------|
[ Tab from: http://www.guitartabs.cc/tabs/t/treble_charger/hundred_million_tab_ver_5.html ]
CHORUS
|--------------------------------------------------|
|--------------------------------------------------|
|--------------------------------------------------|
|-3-4-5-6-7---------------3-4-5-6-7--7-7-9---------|   2X
|-1-2-3-4-5---------------1-2-3-4-5--5-5-7---------|
|-----------4-5-5-5-4-0-0--------------------------|

VERSE 2
|--------------------------------------------------|
|--------------------------------------------------|
|--------------------------------------------------|
|-9-9-9-9-9-9-9-9-9-9-9-9-9-9-9--------------------|
|-*-*-*-*-*-*-*-*-*-*-*-*-*-*-*--------------------|
|-7-7-7-7-7-7-7-7-7-7-7-7-7-7-7--------------------|

VERSE 3 INTRO      VERSE 3       VERSE 3 OUTRO
|-----------|-------------------|------------------|
|-----------|-------------------|------------------|
|-----------|-------------------|------------------|
|-7-7-6-5-4-|---------7-7-6-5-4-|------------------|
|-5-5-4-3-2-|-2-2-2-2-5-5-4-3-2-|-2-2-2-2----------|
|-----------|-0-0-0-0-----------|-0-0-0-0----------|

VERSE 4
|-0-0-0-0------------------------------------------|
|-5-4-5-0------------------------------------------|
|--------------------------------------------------|
|--------------------------------------------------| X5
|--------------------------------------------------|
|--------------------------------------------------|

INTRO,VERSE 1,PRE-CHORUS,CHORUS,INTRO,VERSE 1,PRE-CHORUS,CHORUS,
VERSE 2,VERSE 3 INTRO,VERSE 3 X3,VERSE 3 OUTRO,VERSE 4,CHORUS 2X,INTRO
Comments