Treble Charger - Hundred Million Chords & Tabs

 

Hundred Million Chords & Tabs

Treble Charger Chords & Tabs

Version: 3 Type: Tab 0 ratings
1 star 2 stars 3 stars 4 stars 5 stars
comments

Hundred Million Tab

   
Song: Hundred Million
Band: Treble Charger
CD: Detox (Buy it now!)
Tabbed By: David Huzyk (Babaca)

Ok, this song is amazing. I love this song. But there were no good tabs on it.
Lately there has been some very close to it, but here is what i believe to be
the exact way they play it. Also note that guitar 1 is the prominant guitar, 
(for those of you who dont know wha that means, guitar 1 is louder than guitar 2)

Tuning: down 1/2 step (eb,Bb,Gb,Db,Ab,eb)

INTRO
Guitar 1
eb|------------------------------------
Bb|------------------------------------
Gb|------------------------------------ X2, but at the end of the
Db|------------------------------------ 2nd time guitar 2 pick scrapes
Ab|----7-6---3-4---3-4-----7/9----9/11-
Eb|-0-0-----0-----0-----0-0----0-0-----

PRE-VERSE 
(same as intro, except guitar 2 plays this)
Guitar 2
eb|------------------------------------
Bb|------------------------------------
Gb|------------------------9/11--11/13- X2
Db|------------------------x/x----x/x--
Ab|----7-6---3-4---3-4-----7/9----9/11-
Eb|-0-0-----0-----0-----0-0----0-0-----

VERSE
Guitar 1
eb|----------------------------
Bb|----------------------------
Gb|------------------------5-5- X4
Db|-2-2-2-2-6-6-6-6-2-2-2--5-5-
Ab|-2-2-2-2-6-6-6-6-0-0-0--3-3-
Eb|-0-0-0-0-4-4-4-4-0-0-0------
pm  . . . . . . . . . . .

PRE-CHORUS
guitar 1
eb|----------------------------------------------------------------
Bb|----------------------7-7-9-9-9-----------------------7-7-9-9-9-
Gb|-9-9-9-9-9-9-9-9-9-9-9-----------9-9-9-9-9-9-9-9-9-9-9---------- X2
Db|----------------------------------------------------------------
Ab|----------------------------------------------------------------
Eb|----------------------------------------------------------------

guitar 2
eb|-------------------------------------------------------------------------
Bb|-------------------------------------------------------------------------
Gb|-9-9-9-9-9-9-9-9-9-9-9-9-9-9-9-9-9-9-9-9-9-9-9-9-11-11-11-11-11-11-11-11- X2
Db|-x-x-x-x-x-x-x-x-x-x-x-x-x-x-x-x-x-x-x-x-x-x-x-x--x--x--x--x--x--x--x--x-
Ab|-7-7-7-7-7-7-7-7-6-6-6-6-6-6-6-6-7-7-7-7-7-7-7-7--9--9--9--9--9--9--9--9-
Eb|-------------------------------------------------------------------------

CHORUS
Guitar 1
eb|-----------------------------------------------------------------
Bb|-----------------------------------------------------------------
Gb|-------9--4-4-4-5-6-6-6-------------------9--4-4-4-5-6-6-6--7--7- X2
Db|-2-2-2-9--4-4-4-5-6-6-6--2-4-2-4-2--2-2-2-9--4-4-4-5-6-6-6--7--7-
Ab|-2-2-2-7--2-2-2-3-4-4-4--2-4-2-4-2--2-2-2-7--2-2-2-3-4-4-4--5--5-
Eb|-0-0-0-------------------0-2-0-2-0--0-0-0------------------------
[ Tab from: http://www.guitartabs.cc/tabs/t/treble_charger/hundred_million_tab_ver_3.html ]
Guitar 2
eb|---------------------------------------------------------------------
Bb|---------------------------------------------------------------------
Gb|----------4-4-4-4--6-6-6-6--------------------4-4-4-4--6-6-6-6--7--7- X2
Db|-2-2-2-2--4-4-4-4--6-6-6-6--4-4-4-4--2-2-2-2--4-4-4-4--6-6-6-6--7--7-
Ab|-2-2-2-2--2-2-2-2--4-4-4-4--4-4-4-4--2-2-2-2--2-2-2-2--4-4-4-4--5--5-
Eb|-0-0-0-0--------------------2-2-2-2--0-0-0-0-------------------------

(play pre-verse again)

(play verse again)

(play pre-chorus again)

(play chorus again)

PRE-SOLO
Guitar 1
eb|-------------------------------
Bb|-------------------------------
Gb|-9-9-9-9-9-9-9-9-9-9-9-9-9-9-9-
Db|-x-x-x-x-x-x-x-x-x-x-x-x-x-x-x-
Ab|-7-7-7-7-7-7-7-7-7-7-7-7-7-7-7-
Eb|-------------------------------

SOLO
Guitar 1
eb|------------------------------
Bb|------------------------------
Gb|--------7-6-5--5-5------------ X4
Db|-2-2-2--7-6-5--5-5--6-7-7-7-6-
Ab|-2-2-2--5-4-3--3-3--6-7-7-7-6-
Eb|-0-0-0--------------4-5-5-5-4-

Guitar 2 (comes in after guitar 2 has played above riff twice)
eb|-----------------------------
Bb|-8--10--12~-------8--10--12b-
Gb|-x---x---x--------x---x---x--
Db|-5---7---9~-------5---7---9b-
Ab|-----------------------------
Eb|-----------------------------

INTERLUDE
Guitar 1
eb|------------
Bb|-5--4--5--0-
Gb|----------4- X6, and right after played the 6th
Db|------------ time go into a long pick scrape
Ab|------------
Eb|------------

Guitar 2 (comes in after guitar 1 plays above riff once)
eb|-------------------------------------------------------------------
Bb|-------------------------------------------------------------------
Gb|------------------------------------------------------------5--5-5- X3
Db|-2-2-2-2-2-2-2-2-6-6-6-6-6-6-6-6-7-7-7-7-7-7-7-7-7-7-7-7-7--5--5-5-
Ab|-2-2-2-2-2-2-2-2-6-6-6-6-6-6-6-6-7-7-7-7-7-7-7-7-7-7-7-7-7--3--3-3-
Eb|-0-0-0-0-0-0-0-0-4-4-4-4-4-4-4-4-5-5-5-5-5-5-5-5-5-5-5-5-5---------
pm  . . . . . . . . . . . . . . . . . . . . . . . . . . . . .

Guitar 2 cont'd (plays this after played above riff 3 times along with guitar 1)
eb|-----------------------------------------------------------------
Bb|-----------------------------------------------------------------
Gb|-----------------------------------------------------------------
Db|-2-2-2-2-2-2-2-2-6-6-6-6-6-6-6-6-7-7-7-7-7-7-7-7-7-7-7-7-7-7-7-7-
Ab|-2-2-2-2-2-2-2-2-6-6-6-6-6-6-6-6-7-7-7-7-7-7-7-7-7-7-7-7-7-7-7-7-
eb|-0-0-0-0-0-0-0-0-4-4-4-4-4-4-4-4-5-5-5-5-5-5-5-5-5-5-5-5-5-5-5-5-
pm  . . . . . . . . . . . . . . . . . . . . . . . . . . . . . 

(play chorus again)

CHORUS OUTRO
Guitar 1
eb|-----------------------------
Bb|-----------------------------
Gb|------9--4-4-4-5-6-6-6--7--7- X3
Db|2-2-2-9--4-4-4-5-6-6-6--7--7-
Ab|2-2-2-7--2-2-2-3-4-4-4--5--5-
Eb|0-0-0------------------------

Guitar 2
eb|---------------------------------
Bb|---------------------------------
Gb|----------4-4-4-4--6-6-6-6--7--7- X3
Db|-2-2-2-2--4-4-4-4--6-6-6-6--7--7-
Ab|-2-2-2-2--2-2-2-2--4-4-4-4--5--5-
Eb|-0-0-0-0-------------------------

(play per-verse again)

and thats the song! Guitar 2 took me a while to get, but i got it. This
should be very complete, better than all the other tabs here. If you have 
and questions/corrections etc. e-mail me at Babaca_WIN_69@hotmail.com
Also go buy this cd! Its amazing! One of my all time favourite cds!!!
Comments