Treble Charger - Hundred Million Chords & Tabs

 

Hundred Million Chords & Tabs

Treble Charger Chords & Tabs

Version: 2 Type: Tab 0 ratings
1 star 2 stars 3 stars 4 stars 5 stars
comments

Hundred Million Tab

#-----------------------------------------------------------------------------#
#-- File created with Instab - http://www.pconline.com/~smcarey/instab.html --#
#-----------------------------------------------------------------------------#

Author/Artist: Treble Charger
Title: Hundred Million
Album: Detox
Transcribed by: Beni
Email: Benoito@hotmail.com

This song rocks!!!

I don't know if it's right but it sounds good. 

------------------------------------------------------------------------------
------------------------------------------------------------------------------
-------------------------8-10----10-12----------------------------------------
-------------------------x-x-----x--x-----------------------------------------
-----6-5---2-3---2-3-----6/8-----8/-10----------------------------------------
-0-0-----0-----0-----0-0-----0-0----------------------------------------------
 Intro                                                                        

------------------------------------------------------------------------------
------------------------------------------------------------------------------
---------------------4-4------------------------------------------------------
---------------------4-4------------------------------------------------------
---------------------2-2------------------------------------------------------
-x-x-x-x-x-x-x-x-x-x----------------------------------------------------------
 verse 1                                                                      

------------------------------------------------------------------------------
------------------------------------------------------------------------------
------------------------------------------------------------------------------
-6--5--6--8-------------------------------------------------------------------
-6--5--6--8-------------------------------------------------------------------
-4--3--4--6-------------------------------------------------------------------
 verse 2                                                                      
[ Tab from: http://www.guitartabs.cc/tabs/t/treble_charger/hundred_million_tab_ver_2.html ]
---------------------|--------------------------------------------------------
---------------------|--------------------------------------------------------
--8-8-----------8-10-|-8-8-----------6-6--------------------------------------
--8-8-8-9-10-10-8-10-|-8-8-8-9-10-10-6-6--------------------------------------
--6-6-8-9-10-10-6-8--|-6-6-8-9-10-10-4-4--------------------------------------
------6-7-8--8-------|-----6-7--8--8------------------------------------------
 Chorus                                                                       

------------------------------------------------------------------------------
------------------------------------------------------------------------------
------------------------------------------------------------------------------
------------------------------------------------------------------------------
-7-7-7-7-7-7-7-7-7-7-7-7-7-7-7-7-7--------------------------------------------
------------------------------------------------------------------------------
 verse 3                                                                      

------------------------------------------------------------------------------
------------------------------------------------------------------------------
-----6-5-4--------------------------------------------------------------------
-2-2-6-5-4-6-6----------------------------------------------------------------
-2-2-4-3-2-6-6----------------------------------------------------------------
-0-0-------4-4----------------------------------------------------------------
 verse 4                                                                      

------------------------------------------------------------------------------
-4-3-4------------------------------------------------------------------------
-------3----------------------------------------------------------------------
------------------------------------------------------------------------------
------------------------------------------------------------------------------
------------------------------------------------------------------------------
 verse 5                                                                      

------------------------------------------------------------------------------
------------------------------------------------------------------------------
------------------------------------------------------------------------------
------------------------------------------------------------------------------
------------------------------------------------------------------------------
------------------------------------------------------------------------------
                                                                              

Comments