Treble Charger - Hundred Million Chords & Tabs

 

Hundred Million Chords & Tabs

Treble Charger Chords & Tabs

Version: 6 Type: Bass Tab 0 ratings
1 star 2 stars 3 stars 4 stars 5 stars
comments

Hundred Million Bass Tab

   
Other tabs are close, but this is pretty much 100% correct...

Intro (come in on 3rd time)

G|---------------------------------------|
D|---------------------------------------|  (x2)
A|-----6-7-0-3h4-0-3h4-0-0-7h11-0-0-9h11-|
E|-0-0-----------------------------------|

Verse
G|---------------------------|
D|---------------------------|  (x4)
A|-----------------------3-3-|
E|-0-0-0-0-4-0-0-0-0-0-0-----|

Pre Chorus
G|-----------------------------------------------------------------|
D|-----------------------------------------------------------------|  (x2)
A|-----------------------------------------------------------------|
E|-5-5-5-5-5-5-5-5-4-4-4-4-4-4-4-4-5-5-5-5-5-5-5-5-7-7-7-7-7-7-7-7-|

Chorus
G|------------------------------------|
D|------------------------------------|  (x2)
A|-7--------------------7---------5-5-|
E|---6h7-8-9--0h2-0h2-0---6h7-8-9-----|
[ Tab from: http://www.guitartabs.cc/tabs/t/treble_charger/hundred_million_btab_ver_6.html ]
Intro x2
Verse x4
Pre Chorus x2
Chorus x2
Rest then
G|------|
D|------|  (x1)
A|------|
E|-12\0-|

Bridge 1
G|-----------------------|
D|-----------------------|  (x4)
A|-----5-4-3-3-----------|
E|-0-0---------4-5-5-5-4-|

Bridge 2
G|-----------------------------------------------------------------|
D|-----------------------------------------------------------------|  (x1)
A|-----------------------------------------------------------------|
E|-0-0-0-0-0-0-0-0-4-4-4-4-4-4-4-4-5-5-5-5-5-5-5-5-5-5-5-5-5-5-5-5-|

Bridge 3
G|-----------------------------------------------------------------|
D|-----------------------------------------------------------------|  (x3)
A|-----------------------------------------------------------------|
E|-0-0-0-0-0-0-0-0-4-4-4-4-4-4-4-4-5-5-5-5-5-5-5-5-5-5-5-5-5-8-8-8-|

Bridge 2 (x1)
Chorus (x2)

G|---------------|
D|---------------|  (x3)
A|-7---------5-5-|
E|---6h7-8-9-----|

Intro (x2)

and thats it, 100% correct
Comments