Treble Charger - Hundred Million Chords & Tabs

 

Hundred Million Chords & Tabs

Treble Charger Chords & Tabs

Version: 5 Type: Bass Tab 0 ratings
1 star 2 stars 3 stars 4 stars 5 stars
comments

Hundred Million Bass Tab

----------------------------------------------------------------------------
			     Hundred Million - Treble Charger
----------------------------------------------------------------------------

This is an awesome song, and it's really easy to learn, give it a chance



Tabbed By : Bassman!
e-mail: bassman13@hotmail.com

Tuning:  **HALF STEP!** (too many people think it's standard)



    Starts 3rd time around         (0:07)      Intro x2
G|--------------------------------------------------------------------------
D|--------------------------------------------------------------------------
A|-------7-6-----3-4----3h4-------7h9-----9h11------------------------------
E|--0-0-------0-------0------0-0------0-0-----------------------------------



                                    (0:16)     Verse x4
G|--------------------------------------------------------------------------
D|--------------------------------------------------------------------------
A|--------------------------------------------------------------------------
E|--0000-2-000000--3--3-----------------------------------------------------


[ Tab from: http://www.guitartabs.cc/tabs/t/treble_charger/hundred_million_btab_ver_5.html ]
                                   (0:27)     Pre Chorus X2
G|--------------------------------------------------------------------------
D|--------------------------------------------------------------------------
A|--------------------------------------------------------------------------
E|--55555555-44444444-55555555-77777777-------------------------------------


                                   (0:39)      Chorus X2  
G|--------------------------------------------------------------------------
D|--2-----------------------2-----------------------------------------------
A|----0-22-33-4----------------0-22-33-4-4h5-5-5----------------------------
E|---------------0-2-0-2-0--------------------------------------------------


INTRO x2 (0:52)
VERSE x4  (1:00)
PRE CHORUS x2 (1:12)
CHORUS   X2     (1:24)


                                  (1:39)      Bridge x4
G|--------------------------------------------------------------------------
D|--------------------------------------------------------------------------
A|------5-4-3-33------------------------------------------------------------
E|--00------------4-5554----------------------------------------------------


                                  (1:51)     Solo Bridge x5   
G----------------------------------------------------------------
D----------------------------------------------------------------
A----------------------------------------------------------------
E-00000000-44444444-5555555555555555-----------------------------



CHORUS x2   (2:22)


                         (2:35)    Chorus End x4
G|------------------------------------------------
D|--2---------------------------------------------
A|------0-22-33-4-4h5-5-5-------------------------
E|------------------------------------------------


INTRO x2   (2:43)
Comments