Treble Charger - Hundred Million Chords & Tabs

 

Hundred Million Chords & Tabs

Treble Charger Chords & Tabs

Version: 2 Type: Bass Tab 0 ratings
1 star 2 stars 3 stars 4 stars 5 stars
comments

Hundred Million Bass Tab

Treble Charger- Hundred Million



Intro/Interlude-The bass does play here, it just comes in the third or fourth 
G|------------------------------------------------------------------------------------------||
D|------------------------------------------------------5-----------------------------------||
A|-------6-5-------------------------6-8---------6-----------------------------------------||
E|-0-0--------0--7-8--0--7-8-0-0----------0-0-------------------------------------------||

Verse-
G|---------------------------------------------------------------------------||
D|---------------------------------------------------------------------------||
A|-----------------------------------2--2-----------------------------------||
E|--0-0-0-0--3-3--0-0-0-0---------------------------------------------||

Pre-Chorus
[ Tab from: http://www.guitartabs.cc/tabs/t/treble_charger/hundred_million_btab_ver_2.html ]
G|----------------------------------------------------------------------------------------------||
D|----------------------------------------------------------------------------------------------||
A|----------------------------------------------------------------------------------------------||
E|--4-4-4-4-4-4-4-4--3-3-3-3-3-3-3-3--4-4-4-4-4-4-4-4-4--6-6-6-6-6-6-6-6-6---------||

Chorus*-You may think otherwise, but it is how it is played.

G|------------------------------------------------------------------------||
D|------------------------------------------------------------------------||
A|------------------------------7------------------------7---------------||
E|-0--6-6-7-7-8-8--2-0-2-0-----6-6-7-7-8-8--4-4-------------------||

Brigde 1

G|----------------------------------------------||
D|----------------------------------------------||
A|-----5-3-2-----------------------------------||
E|-0-----------4-4-4-4--0---------------------||

Bridge 2

G|------------------------------------------------------------||
D|------------------------------------------------------------||
A|------------------------------------------------------------||
E|-0-0-0-0-0-0-0-0-3-3-3-3-3-3-3-3-4-4-4-4-4-4-4-4---||



Comments