Treble Charger - Friend Of Mine Chords & Tabs

 

Friend Of Mine Chords & Tabs

Treble Charger Chords & Tabs

Version: 2 Type: Tab 0 ratings
1 star 2 stars 3 stars 4 stars 5 stars
comments

Friend Of Mine Tab

Treble Charger-"Friend of Mine"
from the album "Maybe It's Me", 1997.
words and music by Greig Nori, Rosie Martin, Bill Priddle,
		   Mike Levesque
tabbed by: Jd Dude


Intro-Fig. 1
Gtr. 1+2 w/ dist.
Play twice
|-----------------------------------------------------------|
|-----------------------------------------------------------|
|-10-10----10-8--8------------------------------------------|
|-10-10-10-10-8--8--x-8--8-8--x-10-10-----------------------|
|--8--8-10--8-6--6--x-8--8-8--x-10-10-----------------------|
|--------8------------6--6-6-----8--8-----------------------|


Verse-Fig. 2
Gtr. 1 clean
Play five times
***note: in the video and in live shows, it is clear that 
this riff is actually done with the whammy bar and not with
bends, but the whammy on my guitar only goes down instead of
up and down, so i'm forced to play it this way, which to my 
ears, doesn't sound quite right...so if ya gots a whammy,
try it out and see whats ya get okie?
|-----------------------------------------------------------|
|------8^7------8^7------8^7------8^7-----6^5-----6^5-------|
|-8^10-----8^10-----8^10-----8^10-----6^7-----6^7-----6^7---|
|-----------------------------------------------------------|
|-----------------------------------------------------------|
|-----------------------------------------------------------|

|-----------------------------------------------------------|
|-6^5-----6^5-----------------------------------------------|
|-----6^7---------------------------------------------------|
|-----------------------------------------------------------|
|-----------------------------------------------------------|
|-----------------------------------------------------------|

Gtr. 2 clean
|-----------------------------------------------------------|
|-------------3-3-3-3-3-3-3-3-3-5-5-5-5-3-3-3---------------|
|-2-2-2-2-2-2-3-3-3-3-3-3-3-3-3-5-5-5-5-3-3-3---------------|
|-3-3-3-3-3-3-3-3-3-3-3-3-3-3-3-3-3-3-3-3-3-3---------------|
|-3-3-3-3-3-3-----------------------------------------------|
|-----------------------------------------------------------|


Bridge-Fig. 3
Gtr. 1 w/ overdrive
|-----------------------------------------------------------|
|-----------------------------------------------------------|
|-2----3---------5----2----3--------------------5-5-5-5-5-5-|
|-2----3----3----5----2----3----3-3-3-3-3-3-3-3-5-5-5-5-5-5-|
|-0----1----3----3----0----1----3-3-3-3-3-3-3-3-3-3-3-3-3-3-|
|-----------1-------------------1-1-1-1-1-1-1-1-------------|

|-----------------------------------------------------------|
|-----------------------------------------------------------|
|-5-5-3-3-3-3-3-3-3-3-5-5-5-5-5-5-5-5-----------------------|
|-5-5-3-3-3-3-3-3-3-3-5-5-5-5-5-5-5-5-----------------------|
|-3-3-1-1-1-1-1-1-1-1-3-3-3-3-3-3-3-3-----------------------|
|-----------------------------------------------------------|

Gtr. 2 w/ dist.
|-----------------------------------------------------------|
|-----------------------------------------------------------|
|-14-------14-------14-------12-------14-------14-----------|
|----14-------15-------15-------14-------14-------15--------|
|-------15-------17-------15-------15-------15-------17-----|
|-----------------------------------------------------------|

|-------------------------------------------17--------------|
|-----------------------------------------------------------|
|-14--------14--------14-14-------14--14-14-----------------|
|--------------15-----------15------------------------------|
|-------15---------15----------15---------------------------|
|-----------------------------------------------------------|


Chorus-Fig. 4
Gtr. 1+2 w/ dist.
Play twice
|-----------------------------------------------------------|
|-----------------------------------------------------------|
|---------------5-x-5--5-5-5--3-x-3--3-3-3--5-x-5--5-5-5----|
|-3-x-3--3-3-3--5-x-5--5-5-5--3-x-3--3-3-3--5-x-5--5-5-5----|
|-3-x-3--3-3-3--3-x-3--3-3-3--1-x-1--1-1-1--3-x-3--3-3-3----|
|-1-x-1--1-1-1----------------------------------------------|


Fill 1
Gtr. 2 w/ dist.
Play twice
"It's brought to you to late..."
|-----------------------------------------------------------|
|-------10----10----10-----------8----8----8----------------|
|----12----12----12----12-----10---10---10---10-------------|
|-10------------------------8-------------------------------|
|-----------------------------------------------------------|
|-----------------------------------------------------------|
[ Tab from: http://www.guitartabs.cc/tabs/t/treble_charger/friend_of_mine_tab_ver_2.html ]
Fill 2
Gtr. 2 w/ dist.
Play during third playing of Fig. 1
|-----------------------------------------------------------|
|-6------6----6--6------6----6--6------6----6---------6-----|
|-8^10-(10)-(10)-8^10-(10)-(10)-8^10-(10)-(10)-9-9-9--8^10--|
|-----------------------------------------------------------|
|-----------------------------------------------------------|
|-----------------------------------------------------------|

|-----------------------------------------------------------|
|---6----6--6------6----6--6------6----6--------------------|
|-(10)-(10)-8^10-(10)-(10)-8^10-(10)-(10)-9-9-9-------------|
|-----------------------------------------------------------|
|-----------------------------------------------------------|
|-----------------------------------------------------------|


Interlude-Fig. 5
Gtr. 2
|-----------------------------------------------------------|
|--8-------8----------------------10------10----------------|
|-10^12---10^12^10-8---10--7--10--12^14---12^14^12-10---9-10|
|-----------------------------------------------------------|
|-----------------------------------------------------------|
|-----------------------------------------------------------|

|-----------------------------------------------------------|
|---------------8-------8-----------------------------------|
|-12-10-9------10^12---10^12^10-8--9--10--12--14-------14---|
|---------10-------------------------------------15---------|
|---------------------------------------------------15------|
|-----------------------------------------------------------|

|-----------------------------------------------------------|
|-----------------------------------------------------------|
|-14-14-14-------14--14-14----------------------------------|
|----------15-----------------------------------------------|
|-------------15--------------------------------------------|
|-----------------------------------------------------------|


Outro-Fig. 6
Gtr. 2 w/ dist.
|-----------------------------------------------------------|
|-10-----10----10-----8------8-----8-----11----11----10-----|
|-12^14--12^14-12^14-10^12--10^12-10^12--13^15-13^15-12^14--|
|-----------------------------------------------------------|
|-----------------------------------------------------------|
|-----------------------------------------------------------|

|-----------------------------------------------------------|
|--8------8-----8-----10-----10----10-----8------8-----8----|
|-10^12--10^12-10^12--12^14--12^14-12^14-10^12--10^12-10^12-|
|-----------------------------------------------------------|
|-----------------------------------------------------------|
|-----------------------------------------------------------|

|-----------------------------------------------------------|
|-11----11----10-----8------8-----8-----6------6----6-----6-|
|-13^15-13^15-12^16-10^12--10^12-10^12--8^10-(10)-(10)--(10)|
|-----------------------------------------------------------|
|-----------------------------------------------------------|
|-----------------------------------------------------------|

|-----------------------------------------------------------|
|---6----6--6------6----6-----6----6----6--6------6----6----|
|-(10)-(10)-8^10-(10)-(10)--(10)-(10)-(10)-8^10-(10)-(10)---|
|-----------------------------------------------------------|
|-----------------------------------------------------------|
|-----------------------------------------------------------|
                                                ***begins slow
                                                   fade out
|-----------------------------------------------------------|
|--8------8----8----8---------------------------------------|
|-10^12-(12)-(12)-(12)---14-14-14-14-15--17---17--17--------|
|----------------------------------------------------19-----|
|-------------------------------------------------------20--|
|-----------------------------------------------------------|

|-----------------------------------------------------------|
|-----------------------------------------------------------|
|-17-------17-------17-------19-17----17--19--19-19-17----17|
|----19-------19-------19----------19------------------19---|
|-------20-------20-------20--------------------------------|
|-----------------------------------------------------------|

|-----------------------------------------------------------|
|-----------------------------------------------------------|
|-19-14-14---15-14--15-17-17--15-14-12---14-14--15-14--15-17|
|-----------------------------------------------------------|
|-----------------------------------------------------------|
|-----------------------------------------------------------|
 
|-----------------------------------------------------------|
|-----------------------------------------------------------|
|-17--15-14-12----------------------------------------------|
|-----------------------------------------------------------|
|-----------------------------------------------------------|
|-----------------------------------------------------------|
Comments