Treble Charger - Favourite Worst Enemy Chords & Tabs

 

Favourite Worst Enemy Chords & Tabs

Treble Charger Chords & Tabs

Version: 2 Type: Tab 0 ratings
1 star 2 stars 3 stars 4 stars 5 stars
comments

Favourite Worst Enemy Tab

   
Song: FAVORITE WORST ENEMY
By: TREBLE CHARGER
From: WIDE AWAKE BORED
Tabbed by: Melissa.

This song is mainly power chords, the opening and the bridge riff is
composed of both chords as well as notes, however I don't know
the notes for that partat this time.


Verse 1.
    A5
E---x----------------------------------------------------------------|
B---x----------------------------------------------------------------|
G---x----------------------------------------------------------------|
D---7----------------------------------------------------------------|
A---7----------------------------------------------------------------|
E---5----------------------------------------------------------------|
    if you could....
(Hold the chord let it ring.)

Pre chorus.

    A5	 B5	 G5     Ab5	  A5
E--------------------------------------------------------------------|
B--------------------------------------------------------------------|
G--------------------------------------------------------------------|
D---7-7--9-9-9---5-5-5--6-6-6-6-/-7----------------------------------|
A---7-7--9-9-9---5-5-5--6-6-6-6-/-7----------------------------------|
E---5-5--7-7-7---3-3-3--4-4-4-4-/-5----------------------------------|
    senses....            never coming....

(hard down strums until "never coming you're going.." on Ab5)

Chorus
    A5 B5  G5 Ab5
E---x---------------------------------------------------------------|
B---x---------------------------------------------------------------|
G---x---------------------------------------------------------------|
D---7---9--5--6-----------------------------------------------------|
A---7---9--5--6-----------------------------------------------------|
E---5---7--3--4-----------------------------------------------------|
    and it's driving me crazy...(listen for changes, each chord is played
more than once)

verse 2
    A5   B5 A5   B5
E-------------------------------------------------------------------|
B-------------------------------------------------------------------|
G-------------------------------------------------------------------|
D---7----9---7---9--------------------------------------------------|
A---7----9---7---9--------------------------------------------------|
E---5----7---5---7--------------------------------------------------|
    I guess...
(short down strokes for verses)

Pre Chorus
[ Tab from: http://www.guitartabs.cc/tabs/t/treble_charger/favourite_worst_enemy_tab_ver_2.html ]
  A5	 B5	 G5     Ab5	  A5
E--------------------------------------------------------------------|
B--------------------------------------------------------------------|
G--------------------------------------------------------------------|
D---7-7--9-9-9---5-5-5--6-6-6-6-/-7----------------------------------|
A---7-7--9-9-9---5-5-5--6-6-6-6-/-7----------------------------------|
E---5-5--7-7-7---3-3-3--4-4-4-4-/-5----------------------------------|
    senses....            never coming....

Chorus
    A5  B5 G5 Ab5
E---x---------------------------------------------------------------|
B---x---------------------------------------------------------------|
G---x---------------------------------------------------------------|
D---7---9--5--6-----------------------------------------------------|
A---7---9--5--6-----------------------------------------------------|
E---5---7--3--4-----------------------------------------------------|
    and it's driving me crazy...(listen for changes, each chord is played
more than once)... good enough...

    A5       G5       Ab5     Bb5
E---x----------------------------------------------------------------|
B---x----------------------------------------------------------------|
G---x----------------------------------------------------------------|
D---7-7-7-7--5-5-5-5--6-6-6-6-8-8-8-8-----repeat until---------------|
A---7-7-7-7--5-5-5-5--6-6-6-6-8-8-8-8---------end--------------------|
E---5-5-5-5--3-3-3-3--4-4-4-4-6-6-6-6--------------------------------|
    'Cause there's something about you....favourite worst enemy...


verse 3.
A5, B5, G5, Ab5 (repeat)

Pre-chorus
Chorus.

(part after bridge with 2 guitar's playing.)

    A5      G5       Ab5        F5
E-------------------------------------------------------------------|
B-------------------------------------------------------------------|
G-------------------------------------------------------------------|
D---7777--/--5555---/--6666--/--3333--------------------------------|
A---7777--/--5555---/--6666--/--3333--------------------------------|
E---5555--/--3333---/--4444--/--1111--------------------------------|

That's it, it's a lot of repitition of chords, You can hear the changes
farily easily. Greig plays the first beat of each chord with a little
heavier of a strum.
The strumming pattern is a (dd u ud u)
patter. down-down up-up down-up.
or for those of you who know actual note time values it's

quarter-eighth-eighth-quarter-eighth-eighth

so the song is in 4/4 time.  for the most part the strum patternt doesn't
change unless otherwise specified above. GOOD LUCK.
Comments