Treble Charger - Dont Believe It All Chords & Tabs

 

Dont Believe It All Chords & Tabs

Treble Charger Chords & Tabs

Version: 1 Type: Bass Tab 0 ratings
1 star 2 stars 3 stars 4 stars 5 stars
comments

Dont Believe It All Bass Tab

hey everyone this is my first bass tab so bear with me alright. ive been lookin
for this song for a while on tab sites but i havnt found it yet so one day i
decided to sit down and tab it for my self (FOR FOUR STRING BASS). i dont have
it ALL right now i just have the verses and the chorus. if u got any compliments
or complaints send em to me :   p_nut360@hotmail.com
[ Tab from: http://www.guitartabs.cc/tabs/t/treble_charger/dont_believe_it_all_btab.html ]
VERSE:
G------------------------------------
D------------------------------------
A-0---4----2----0h2-2----------------
E------------------------------------
just keep doin that over and over

CHORUS:
G------------------------------------
D------------------------------------
A-0-0-0-0-------2-2-2-2--444--222----
E--------0-0-0-0---------------------

(can also be played)

G------------------------------------
D------------------------------------
A-----------------2-2-2-2--444--222--
E-5-5-5-5-0-0-0-0--------------------

you can get the bass solo out of the chorus just add a few more notes to each
one, just screw around with it.well thats what i got so far i hope ya like it.
Comments