Treble Charger - Clerics Hip Chords & Tabs

 

Clerics Hip Chords & Tabs

Treble Charger Chords & Tabs

Version: 2 Type: Tab 0 ratings
1 star 2 stars 3 stars 4 stars 5 stars
comments

Clerics Hip Tab

Treble Charger-"Cleric's Hip"
from the album "Self=Title", 1996. 
words and music by Greig Nori, Rosie Martin, Bill Priddle,
                   Morris Palter

trans. by Ian Murdie
icmurdie@magmacom.com


Intro-Fig. 1
Gtr. 1 w/ heavy dist.
Play four times
|----------------------------------------------------------|
|----------------------------------------------------------|
|-5--5--5-5-5----------------------------------------------|
|-5--5--5-5-5-6--6-6--6-6-6-6------------------------------|
|-3--3--3-3-3-6--6-6--6-6-6-6------------------------------|
|-------------4--4-4--4-4-4-4------------------------------|

Gtr. 2 w/ heavy dist.
|----------------------------------------------------------|
|----------------------------------------------------------|
|-5--5--5-5-5-8--8-8--8-8-8-8------------------------------|
|-5--5--5-5-5-8--8-8--8-8-8-8------------------------------|
|-3--3--3-3-3-6--6-6--6-6-6-6------------------------------|
|----------------------------------------------------------|


Fig. 2
Gtr. 1+2 clean
Play four times
|----------------------------------------------------------|
|----------------------------------------------------------|
|3--3--3-3-3-3--3-3-3-3-3-3-3--5--5--5-5-5-----------------|
|3--3--3-3-3-3--3-3-3-3-3-3-3--5--5--5-5-5-6--6-6-6-6-6-6-6|
|1--1--1-1-1-1--1-1-1-1-1-1-1--3--3--3-3-3-6--6-6-6-6-6-6-6|
|------------------------------------------4--4-4-4-4-4-4-4|Chorus-Fig. 3
Gtr. 1+2 w/ heavy dist.
Play 3 times
|----------------------------------------------------------|
|----------------------------------------------------------|
|----------------------------------------------------------|
|8--8-8--8-8-8--7--7-7--7-7-7--5--5-5--5-5-5--3--3-3--3-3-3|
|8--8-8--8-8-8--7--7-7--7-7-7--5--5-5--5-5-5--3--3-3--3-3-3|
|6--6-6--6-6-6--5--5-5--5-5-5--3--3-3--3-3-3--1--1-1--1-1-1|

Gtr. 1
|----------------------------------------------------------|
|-2---2---2------8-----8-----8------4---4---4--------------|
|-4^6-4^6-4^6---10^12-10^12-10^12---6^8-6^8-6^8----/11-----|
|----------------------------------------------------------|
|----------------------------------------------------------|
|----------------------------------------------------------|

|----------------------------------------------------------|
|----------------------------------------------------------|
|/18-----/21-----------------------------------------------|
|----------------------------------------------------------|
|----------------------------------------------------------|
|----------------------------------------------------------|
[ Tab from: http://www.guitartabs.cc/tabs/t/treble_charger/clerics_hip_tab_ver_2.html ]
Gtr. 2
|----------------------------------------------------------|
|----------------------------------------------------------|
|---------6-6-6-----------6---h6--h6--h6h6-----------------|
|-3-3-3---6-6-6---5-5-5---7--------------------------------|
|-3-3-3---4-4-4---5-5-5---7--------------------------------|
|-1-1-1-----------3-3-3---5--------------------------------|Outro-Fig. 4
Gtr. 1+2 w/ heavy dist.
Play three times
|----------------------------------------------------------|
|--------------3---3-3---3---------------3---3-3---3-------|
|-0---0-0---0--2---2-2---2--0---0-0---0--2---2-2---2-------|
|-2---2-2---2--0---0-0---0--0---0-0---0--0---0-0---0-------|
|-2---2-2---2--0---0-0---0--2---2-2---2--0---0-0---0-------|
|-0---0-0---0---------------3---3-3---3--------------------|

|----------------------------------------------------------|
|--------------3---3-3---3---------------------------------|
|-0---0-0---0--2---2-2---2--0---0-0---0--------------------|
|-2---2-2---2--0---0-0---0--0---0-0---0--66666666666666666-|
|-2---2-2---2--0---0-0---0--2---2-2---2--66666666666666666-|
|-0---0-0---0---------------3---3-3---3--44444444444444444-|

|----------------------------------------------------------|
|----------------------------------------------------------|
|-5555555555555555-----------------------------------------|
|-5555555555555555-----------------------------------------|
|-3333333333333333-----------------------------------------|
|----------------------------------------------------------|

Gtr. 1 
Play four times
|----------------------------------------------------------|
|----------------------------------------------------------|
|-5--5--5-5-5----------------------------------------------|
|-5--5--5-5-5-6--6-6--6-6-6-6------------------------------|
|-3--3--3-3-3-6--6-6--6-6-6-6------------------------------|
|-------------4--4-4--4-4-4-4------------------------------|

Gtr. 2 
Play four times
|----------------------------------------------------------|
|----------------------------------------------------------|
|-5--5--5-5-5-8--8-8--8-8-8-8------------------------------|
|-5--5--5-5-5-8--8-8--8-8-8-8------------------------------|
|-3--3--3-3-3-6--6-6--6-6-6-6------------------------------|
|----------------------------------------------------------|

Gtr. 1+2
|----------------------------------------------------------|
|----------------------------------------------------------|
|-3-2------------------------------------------------------|
|-3-2------------------------------------------------------|
|-1-0------------------------------------------------------|
|----------------------------------------------------------|
Comments