Treble Charger - Clerics Hip Chords & Tabs

 

Clerics Hip Chords & Tabs

Treble Charger Chords & Tabs

Version: 1 Type: Tab 0 ratings
1 star 2 stars 3 stars 4 stars 5 stars
comments

Clerics Hip Tab

Song:  CLERICS HIP
Band:  TREBLE CHARGER
Album: SELF=TITLE

Tabbed by Marcel Piffard 
http://members.xoom.com/treb_charger/

d=down strum u=up strum


e|----------|-----3--4------|
B|--3---6---|-----4--4------|
G|--5---8---|--3--5--5------|
D|--5---8---|--3--5--6------|
A|--3---6---|--1--3--6------|
E|----------|--------4------|
(dddd_uudddu)(dduuddu_4x_4x)  
  intro          verses

e|---------------------------------|
B|---------------------------------|
G|---------------------------------|
D|---------------------------------|
A|----5-------4-------2-------0----|
E|--6---6---5---5---3---3---1---1--|
    play 2x
[ Tab from: http://www.guitartabs.cc/tabs/t/treble_charger/clerics_hip_tab.html ]
e|---------|--------|
B|---------|--------|
G|---------|--------|
D|--2---5--|--6-----|
A|--2---5--|--6-----|
E|--0---3--|--4-----|
 (    3x  ) (screams)


Lyrics

All the things that you meant to
Leave behing all the words
That you use and you went through
To decide what you were

Put me in the lie and denie me, 
All that's left to you in the mind
Put me in the eye and define me

Everything you told me, sounds so slow
If you tried to let me, I'd still know
All of that except me, even though
Wether not regret me, can you show
That I might see, all that's left to you in my mind

Put me in the eye and define me there....

Comments