Treble Charger - Cheat Away Chords & Tabs

 

Cheat Away Chords & Tabs

Treble Charger Chords & Tabs

Version: 1 Type: Bass Tab 0 ratings
1 star 2 stars 3 stars 4 stars 5 stars
comments

Cheat Away Bass Tab

Song Title: cheat away
Artist: Treble Charger
Tabbed By: JD_dude

Verse-say what you want about it...

|----------------------------------------------------------------
|--------------------------------0-0-----0-0---------------------
|0-0-----0-0-------------------------------------2-2-----2-2-----
|----------------2-2-----2-2-------------------------------------

Prechorus
[ Tab from: http://www.guitartabs.cc/tabs/t/treble_charger/cheat_away_btab.html ]
|----------------------------------------------------------------
|------------------------------------------------2-2-2-2-2-2-2-2-
|----------------0-0-0-0-2-2-2-2-4-4-4-4-4-4-4-4-----------------
|2-2-2-2-4-4-4-4-------------------------------------------------

chorus

|----------------------------------------------------------------
|--------------------------------2-2-2-2-2-2-2-2-2-2-2-2-2-2-2-2-
|0-0-0-0-0-0-0-0-0-0-0-0-0-0-0-0---------------------------------
|----------------------------------------------------------------

|----------------------------------------------------------------
|--------------------------------2-2-2-2-2-2-2-2-2-2-2-2-2-2-2-2-
|2-2-2-2-2-2-2-2-2-2-2-2-2-2-2-2---------------------------------
|----------------------------------------------------------------

order of song:

verse 5x
chorus 1x
verse 2x
chorus 2x
bridge play nothing
chorus 2x
====
Comments