Treble Charger - Business Chords & Tabs

 

Business Chords & Tabs

Treble Charger Chords & Tabs

Version: 1 Type: Tab 0 ratings
1 star 2 stars 3 stars 4 stars 5 stars
comments

Business Tab

   
Artist: Treble Charger
Song: Business
Album: Wide Awake Bored

tabbed by Andrew Afan [atamize@hotmail.com]

This is really two guitars arranged for one, except for Riff A that has
a guitar 2 solo which I don't know. The rhythm's all here, though.

Intro:

E|-----------------
B|-----------------
G|--7--------------
D|--7---9---5------
A|--5---9---5------
E|------7---3------

I know it's not my business, do I mean anything at all

Verse 1:

E|-------------------------------------------------------------------
B|-------------------------------------------------------------------
G|--7-7-7-7-7-7-7-7-7-7-7-7-7-7-7-7----------------------------------
D|--7-7-7-7-7-7-7-7-7-7-7-7-7-7-7-7-9-9-9-9-9-9-9-9-9-9-9-9-9-9-9-9--
A|--5-5-5-5-5-5-5-5-5-5-5-5-5-5-5-5-9-9-9-9-9-9-9-9-9-9-9-9-9-9-9-9--
E|----------------------------------7-7-7-7-7-7-7-7-7-7-7-7-7-7-7-7--
    palm mute -->

E|--------------------------------------------
B|--------------------------------------------
G|--------------------------------------------
D|--10-10-10-10-10-10-10-10--5-5-5-5-5-5-5-5--
A|--10-10-10-10-10-10-10-10--5-5-5-5-5-5-5-5--
E|---8--8--8--8--8--8--8--8--3-3-3-3-3-3-3-3--  Repeat

Second time only
E|-----------------------------------
B|-----------------------------------
G|-----------------------------------
D|--7-7-7-7-7-7-7-7-7-7-7-7-7-7-7-7--
A|--7-7-7-7-7-7-7-7-7-7-7-7-7-7-7-7--
E|--5-5-5-5-5-5-5-5-5-5-5-5-5-5-5-5--

There's better ways to let me know / Leave a message slip a note
In a place I'll never find / Should be careful what you say
Could all catch up to you some day / Ignore it twice you know
It won't go away

Prechorus 1:

E|--2---3-------------------------------------2---2----------------------
B|--3---3-------------------------------------3---3----------------------
G|--4---4---7-7-7-7-7-7-7-7-7-7-7-7-7-7-7-7---4---4----------------------
D|--4---5---7-7-7-7-7-7-7-7-7-7-7-7-7-7-7-7---4---5---7-7-7-7-7-7-7-7-7--
A|--2---5---5-5-5-5-5-5-5-5-4-4-4-4-4-4-4-4---2---5---7-7-7-7-7-7-7-7-7--
E|------3-----------------------------------------3---5-5-5-5-5-5-5-5-5--

But every time I listen / I get your words stuck in my head

Chorus:

E|-------------------------------------------
B|-------------------------------------------
G|--7--7-7---7-7--7-7------------------------
D|--7--7-7---7-7--7-7---9--9-9--9--5--5-5-5--
A|--5--5-5---5-5--5-5---9--9-9--9--5--5-5-5--
E|----------------------7--7-7--7--3--3-3-3--
[ Tab from: http://www.guitartabs.cc/tabs/t/treble_charger/business_tab.html ]
E|-------------------------------------------
B|-------------------------------------------
G|--7--7-7---7-------------------------------
D|--7--7-7---7--9--9-9--9--5--5-5--5-5--5-5--
A|--5--5-5---5--9--9-9--9--5--5-5--5-5--5-5--
E|--------------7--7-7--7--3--3-3--3-3--3-3-- Repeat

I know it's not my business do I mean anything at all
Cause I've been waiting for so long (Repeat)

Riff A:

E|----------------------------------------------
B|----------------------------------------------
G|--7--7--7-------------------------------------
D|--7--7--7-5--7--7--7-5--7--7--7-5--7--7--7-5--
A|--5--5--5-5--7--7--7-5--7--7--7-5--7--7--7-5--
E|----------3--5--5--5-3--5--5--5-3--5--5--5-3-- Repeat

Verse 2: (Same as verse 1)

Someone tell me what went wrong / Am I still getting dragged along
I've got the scars to prove it / You say you're happy and content
But every fight's the main event / And now I'm in the corner
Spitting blood and spent


Prechorus 2:

E|--2---3-------------------------------------2---2--
B|--3---3-------------------------------------3---3--
G|--4---4---7-7-7-7-7-7-7-7-7-7-7-7-7-7-7-7---4---4--
D|--4---5---7-7-7-7-7-7-7-7-7-7-7-7-7-7-7-7---4---5--
A|--2---5---5-5-5-5-5-5-5-5-4-4-4-4-4-4-4-4---2---5--
E|------3-----------------------------------------3--

But every time I listen / I get your words stuck in my head

E|---------------------------------------------------
B|---------------------------------------------------
G|--7-7-7-7-7-7-7-7-7-7-7-7-7-7-7-7-4-4-4-4-4-4-4-4--
D|--7-7-7-7-7-7-7-7-7-7-7-7-7-7-7-7-4-4-4-4-4-4-4-4--
A|--5-5-5-5-5-5-5-5-4-4-4-4-4-4-4-4-2-2-2-2-2-2-2-2--
E|---------------------------------------------------

And I don't think I see things quite the same

E|---------------------------------------------------------------------
B|---------------------------------------------------------------------
G|---------------------------------------------------------------------
D|--7-7-7-7-7-7-7-7-5-5-5-5-5-5-5-5-4-4-4-4-4-4-4-4-7-7-7-7-7-7-7-7-7--
A|--7-7-7-7-7-7-7-7-5-5-5-5-5-5-5-5-4-4-4-4-4-4-4-4-7-7-7-7-7-7-7-7-7--
E|--5-5-5-5-5-5-5-5-3-3-3-3-3-3-3-3-2-2-2-2-2-2-2-2-5-5-5-5-5-5-5-5-5--

as you would want me to / I'd never be that cruel

Bridge:

E|--2---3-----------------------------2---3---
B|--3---3-----------------------------3---3---
G|--4---4-----------7----------7------4---4---
D|--4---5--------7----7-----7-----7---4---5---
A|--2---5-----5----------4------------2---5---
E|------3---------------------------------3---

Every time I listen / I get your words stuck in my head

E|----------------------------------------------
B|-----------------------------------------3----
G|--------7----------7----------7---------------
D|-----7----7-----7----7-----7----7-----5----5--
A|--5----------4--------------------------------
E|------------------------7----------3---------- (Repeat)

For so long (For so long) / For so long (For so long)

Play Chorus part twice, end on D5
Comments