Treble Charger - Brand New Low Chords & Tabs

 

Brand New Low Chords & Tabs

Treble Charger Chords & Tabs

Version: 3 Type: Tab 0 ratings
1 star 2 stars 3 stars 4 stars 5 stars
comments

Brand New Low Tab

Artist: Treble Charger
Song: Brand New Low
Album: Wide Awake Bored
Tabbed by: Ryan Price (ryan_s_price@hotmail.com)
Standard Tuning
Time: 3min 55sec
This is my first attempt at a tab but it is 100% Correct, 
I sat next to my computer and listened to this song for an 
hour and a half until I got it right, because I was sick of 
finding tabs for any song  that were wrong.  If there are 
any complaints, tough!! :)Happy guitar playing :)

Intro:00:01-00:33
E|----------------------------------|
B|----------------------------------|
G|------1---------------------------|
D|----2-----1-4---------------------|
A|--2-----2----------4------6-4-----|
E|---------------0-2-2---2----------|

Verse: Repeat Intro  00:33-00:50

Prechorus: Play each chord 8x  00:50-01:05
E|------------------------|
B|------------------------|
G|------------------------|
D|--7--6--9--4--7--6--9---| 
A|--7--6--9--4--7--6--9---|
E|--5--4--7--2--5--4--7---|

Chorus: X4. End on third cord last time  01:05-01:22
E|------------------------------------|
B|------------------------------------|
G|------------------7-7-7-7-9-9-9-9---|
D|--4-4-4-4-7-7-7-7-7-7-7-7-9-9-9-9---|
A|--4-4-4-4-7-7-7-7-5-5-5-5-7-7-7-7---|
E|--2-2-2-2-5-5-5-5-------------------|

Verse 2: intro (same as Verse 1)  01:22-01:47

Prechorus: same as above  01:47-02:03

Chorus: same as above  02:03-02:20

Bridge:        02:20-03:02
e------------------------------------------------------------|
b------------------------------------------------------------|
g-------7--------6--6-------9------------------7-9-----7-9---|
d-----9--9-----7--7------7--9--9-----------4-7-7-9-4-7-7-9---|
a---9--------7-----------7--7--9-----------4-7-5-7-4-7-5-7---|
e--7--------5------------5-----7-----------2-5-----2-5-------|
  (--------X2--------)   X4 X4 X8       						        (----X2----)
                        (---X2---)

Chorus:  03:02-03:28

[ Tab from: http://www.guitartabs.cc/tabs/t/treble_charger/brand_new_low_tab_ver_3.html ]
Ending: Repeat X4 , on 4th time play as if 
doing chorus but end on 3rd cord  03:28-03:55
E-----------------------------------|
b-----------------------------------|
g---------7-7-7-7---------9-9-9-9---|
d-4-4-4-4-7-7-7-7-7-7-7-7-9-9-9-9---|
a-4-4-4-4-5-5-5-5-7-7-7-7-7-7-7-7---|
e-2-2-2-2---------5-5-5-5-----------|


Lyrics: 
Over and Over I keep wondering why
Then I give up and see that look in your eyes
cause if I trip and fall, I'll be to blame
and if I hit the wall I'll still be the same

Wasting your time with your so called friends
The one's you adore and the one's you pretend
and it's kind of sad and deranged
but it's not so bad that it can't be explained

Cause in my mind it's all a waste of time and there's no excuse at all
Then I realize, surprise you were right all along

And I want to know have I gone too far
Have I sunk to a Brand New Low
And I want to know if I've gone too far
Cause I've lost all my self control

Guilty as charged I've been convicted and tried 
Was it too much to ask for you to take my side
And there's nothing here left to defend
When it's always me that you blame in the end

Cause in my mind it's the perfect crime and there's no excuse at all
Then I realize, surprise you were right all along

And I want to know have I gone too far
Hav I sunk to a Brand New Low
And I want to know if I've gone too far
cause I've lost all my self control

Nothing is what it seems, to me
You're sleeping without the dreams
Without you, nothing defines me 
When I'm slipping away, It's only you that can find me
And I over my head again I'm falling from end to end

And I want to know have I gone too far
And I want to know have I gone too far
And I want to know if I've gone too far
cause I've lost all my self control
cause I've lost all my self control
cause I've lost all my self control
Yes I've sunk to a Brand New Low

***Not sure about this part, it wasn’t in the little booklet for 
      the CD so I just tried to make it out.  Sorry if it’s wrong. If  
     you do know these words e-mail me at the address above**

Brand New Low
Nothing is new without you
Brand New Low
Nothing to do without you
Brand New Low
I'm slipping away without you
Now I've sunk to a Brand New Low
Comments