Treble Charger - Brand New Low Chords & Tabs

 

Brand New Low Chords & Tabs

Treble Charger Chords & Tabs

Version: 2 Type: Tab 0 ratings
1 star 2 stars 3 stars 4 stars 5 stars
comments

Brand New Low Tab

Artist: Treble Charger
Song: Brand New Low
Album: Wide Awake Bored

Transcribed by: Andrew Afan [atamize@hotmail.com]
1/12/2001

Standard Tuning

Intro:

e|---------------------------------
B|---------------------------------
G|---------------------------4-----
D|------7------5-------4-----4-----
A|----7------5---------4-----2--0--
E|--5------3-----3--2--2--2--------

Verses 1 and 2: Play Intro throughout verse


Prechorus: "'Cause in my mind, 'sall a waste of time..."

e|-----------------------
B|-----------------------
G|--------9--------9-----
D|--7--9--9--4--7--9--9-- Play each chord 8x
A|--7--9--7--4--7--7--9--
E|--5--7-----2--5-----7--


Chorus: "And I wanna know [have I gone too far]..."
[ Tab from: http://www.guitartabs.cc/tabs/t/treble_charger/brand_new_low_tab_ver_2.html ]
e|--------------|--------------|--------------|-----------
B|--------------|--------------|--------------|----------- Play each chord 4x
G|--------9-----|-----------9--|--------9-----|-----------
D|--4--7--9--9--|--4--7--9--9--|--4--7--9--9--|--4--7--9--
A|--4--7--7--9--|--4--7--9--7--|--4--7--7--9--|--4--7--9-- last chord 8x
E|--2--5-----7--|--2--5--7-----|--2--5-----7--|--2--5--7--


Bridge:

  "Nothing is what it seems..."
e|---------------------------|
B|---------------------------|
G|--------8-----------6---6--|
D|------9---9-------7---7----| Play 2x
A|----9-----------7----------|
E|--7-----------5------------|


   "Without You..."
e|-----------------
B|-----------------  This part is pretty distorted and hard to figure out,
G|-----------------  so just play this section 2x (play each chord 4x) and
D|--4-----7-----9--  repeat the last chord to build up to the next section
A|--4-----7-----9--
E|--2-----5-----7--


   [Funky electric part]
e|-----------------------
B|----------------------- Play 2x
G|--------------------9--
D|--4-----7-----9-----9--
A|--4-----7-----9-----7-- Let each chord ring for 4 beats
E|--2-----5-----7--------

Play Chorus to end

Comments