Treble Charger - Brand New Low Chords & Tabs

 

Brand New Low Chords & Tabs

Treble Charger Chords & Tabs

Version: 1 Type: Tab 0 ratings
1 star 2 stars 3 stars 4 stars 5 stars
comments

Brand New Low Tab

Artist: Treble Charger
Song: Brand New Low
Album: Wide Awake Bored

Transcbribed by: Andrew Afan [atamize@hotmail.com]
1/11/2001

Standard Tuning

Intro:

E|---------------------------------
B|---------------------------------
G|---------------------------4-----
D|------7------5-------4-----4-----
A|----7------5---------4-----2--0--
E|--5------3-----3--2--2--2--------

Verse: Play Intro throughout verse

After Greig sings "If I hit the wall, I'll still be the same," play this:

Riff 1:

E|---------------------------
B|---------------------------
G|--9-9-9-9------------4-----
D|--9-9-9-9--9-9--4----4-----
A|--7-7-7-7--9-9--4----2--0--
E|-----------7-7--2--2-------

Prechorus: "'Cause in my mind, 'sall a waste of time..."
[ Tab from: http://www.guitartabs.cc/tabs/t/treble_charger/brand_new_low_tab.html ]
E|-----------------------
B|-----------------------
G|--------9--------9-----
D|--4--9--9--4--7--9--9-- Play each chord 8x
A|--4--9--7--4--7--7--9--
E|--2--7-----2--5-----7--

Chorus: "And I wanna know [have I gone too far]..."

E|--------------
B|--------------
G|--------9-----
D|--4--7--9--9-- Play each chord 4x
A|--4--7--7--9--
E|--2--5-----7--

Riff 1, then start Verse 2

Bridge:
                              "Without You..."   
E|---------------------------|-----------------|-----------------------
B|---------------------------|-----------------|-----------------------
G|--------8-----------6---6--|--------------9--|--------------------9--
D|------9---9-------7---7----|--4-----7-----9--|--4-----7-----9-----9--
A|----9-----------7----------|--4-----7-----7--|--4-----7-----9-----7--
E|--7-----------5------------|--2-----5--------|--2-----5-----7--------
            [x2]                    [x3]          Funky electric part

Play Chorus to end
Comments