Treble Charger - Brand New Low Chords & Tabs

 

Brand New Low Chords & Tabs

Treble Charger Chords & Tabs

Version: 1 Type: Bass Tab 0 ratings
1 star 2 stars 3 stars 4 stars 5 stars
comments

Brand New Low Bass Tab

Song Title-Brand New Low
Artist-Treble Charger
Tabbed by JD_dude


When the guitar does the beginning stuff, dont play-


Beginning-Over and Over I keep....

Prechorus-Cause in my mind...

|-----------------------------------------------------------------
|-----------------------------------------------------------------
|-0-0-0-0-0-0-0-0-----------------2-2-2-2-2-2-2-2-----------------2x
|-----------------0-0-0-0-0-0-0-0-----------------2-2-2-2-2-2-2-2-

Chorus-And I wanna know...


|-----------------------------------------------------------------
|---------0-0-0-0---------------------------------0-0-0-0-2-2-2-2-
|-----------------0-0-0-0-2-2-2-2---------0-0-0-0-----------------2x
|-2-2-2-2-------------------------2-2-2-2-------------------------

Beginning stuff-Guilty as charged...

Prechorus

Chorus

Bridge-1-Nothing is what it seems....

|------------------
|---------0~~~~~~~~
|-2~~~~~~~--------- 2x
|------------------
[ Tab from: http://www.guitartabs.cc/tabs/t/treble_charger/brand_new_low_btab.html ]
Bridge 2-Without you nothing defies me....

|---------------2x----------------|

|---------------------------------|--------------------------------
|---------0-0-0-0-----------------|0-0-0-0-0-0-0-0-2-2-2-2-2-2-2-2-
|-----------------0-0-0-0-0-0-0-0-|--------------------------------
|-2-2-2-2-------------------------|--------------------------------

|--------------------------------2x-------------------------------|
|-------------2x-----------------|--------------3x----------------|

|--------------------------------|--------------------------------
|----------------0-0-0-0-2-2-2-2-|--------0-0-0-0-----------------
|--------0-0-0-0-----------------|----------------0-0-0-0-2-2-2-2-
|2-2-2-2-------------------------|2-2-2-2-------------------------


Have i sunk to a brand new low....

|-----------------------
|0-0-0-0----------------
|--------0~~~~~~~~to end
|2-2-2-2----------------

"Shut up brain, or i'll stab you with a cue tip!"
-Homer Simpson
====
Comments