Treble Charger - American Psycho Chords & Tabs

 

American Psycho Chords & Tabs

Treble Charger Chords & Tabs

Version: 5 Type: Tab 0 ratings
1 star 2 stars 3 stars 4 stars 5 stars
comments

American Psycho Tab

Treble Charger American Psycho.
 Tabbed by Mack,  mackdaddy248@hotmail.com.

 This isn't all of the song, it's missing the part right before the last verse
 Remember to view this with Courier or any other font that makes it even out
 This is my fourth tab I think and I'm only fifteen, but I think it's still better
than the other one on here
here goes...

Intro
e|-------------------------------------------|
b|-------------------------------------------|
g|------6-7-7--------7-6-6--------6-7-7------|
d|-7-7--6-7-7---9-9--7-6-6---7-7--6-7-7---9~-|
a|-7-7--4-5-5---9-9--5-4-4---7-7--4-5-5---9~-|
e|-5-5----------7-7----------5-5----------7~-|

Intro Riff
e|----------5--4--2--0------2-0-2-0-2-0-------------2--0-----|
b|-------2--------------2-----------------2--0-------------2-|
g|-2--4-----------------------------------------2------------|
d|-----------------------------------------------------------|
a|-----------------------------------------------------------|
e|-----------------------------------------------------------|

Verse (PM)
e|--------------------------------------------------------------------|
b|--------------------------------------------------------------------|
g|------------------7-7-7-7-7-7-7-7-----------------------------------|
d|-7-7-7-7-7-7-7-7--7-7-7-7-7-7-7-7--4-4-4-4-4-4-4-4--5-5-5-5-5-5-5-5-|
a|-7-7-7-7-7-7-7-7--5-5-5-5-5-5-5-5--4-4-4-4-4-4-4-4--5-5-5-5-5-5-5-5-|
e|-5-5-5-5-5-5-5-5-------------------2-2-2-2-2-2-2-2--3-3-3-3-3-3-3-3-|

Pre-Chorus
e|-2h3p2p0-------------------0---2h3p2p0---------------------|
b|---------3-2~---2h3p2p0-----------------3-2~---------------|
g|-------------------------2-----------------------------7-7-|
d|-----------------------------------------------4--5-5--7-7-|
a|-----------------------------------------------4--5-5--5-5-|
e|-----------------------------------------------2--3-3------|
[ Tab from: http://www.guitartabs.cc/tabs/t/treble_charger/american_psycho_tab_ver_5.html ]
Chorus
e|--------------------------------------------------------------------|
b|--------------------------------------------------------------------|
g|----------------------------------------------------7-7-7-7-7-7-7-7-|
d|-7-7-7-7-7-7-7-7--2-2-2-2-2-2-2-2--4-4-4-4-4-4-4-4--7-7-7-7-7-7-7-7-|
a|-7-7-7-7-7-7-7-7--2-2-2-2-2-2-2-2--4-4-4-4-4-4-4-4--5-5-5-5-5-5-5-5-|
e|-5-5-5-5-5-5-5-5--0-0-0-0-0-0-0-0--2-2-2-2-2-2-2-2------------------|

Riff only after First Chorus
e|-------------------------------------------------|
b|-------------------------------------------------|
g|------6-7-7--------7-6-6--------6-7-7------6-7-7-|
d|-7-7--6-7-7---9-9--7-6-6---7-7--6-7-7---9--6-7-7-|
a|-7-7--4-5-5---9-9--5-4-4---7-7--4-5-5---9--4-5-5-|
e|-5-5----------7-7----------5-5----------7--------|

the other guitar plays this:

e|-------------------------------------------------|
b|------13-14--------14-13--------13-14------14-13-|
g|-------------------------------------------------|
d|-------------------------------------------------|
a|-------------------------------------------------|
e|-------------------------------------------------|

Solo
e|----------5--4--2--0------2-0-2-0-2-0-------------2--0-----|
b|-------2--------------2-----------------2--0-------------2-|
g|-2--4-----------------------------------------2------------|
d|-----------------------------------------------------------|
a|-----------------------------------------------------------|
e|-----------------------------------------------------------|

Solo Continued
e|-------0--9--7--5--4---5-4-5-4-5-4/2-0--2-0-2-0-2-0-|
b|----2-----------------------------------------------|
g|-2--------------------------------------------------|
d|----------------------------------------------------|
a|----------------------------------------------------|
e|----------------------------------------------------|

Still Solo
e|--------------------|
b|-2/5^---------------|
g|-------7-6----------|
d|------------7-------|
a|---------------7-8~-|
e|--------------------|

Sorry, no breakdown, just kinda apply these parts to the song
(it's not that hard people!)
* Remember to play the third verse like the chorus (PM) instead
of the other verses
Comments?  Suggestions?  Questions? 

:: Ultimate Guitar Archive :: 
http://www.ultimate-guitar.com 



Comments