Treble Charger - American Psycho Chords & Tabs

 

American Psycho Chords & Tabs

Treble Charger Chords & Tabs

Version: 4 Type: Tab 1 rating
1 star 2 stars 3 stars 4 stars 5 stars
comments

American Psycho Tab

   
Artist: Treble Charger
Album: Wide Awake Bored
Song: American Psycho
Tabbed by: Derek5272

LEAD

Intro

e|------------------------------------------------------
B|--------10-9------------------------------------------
G|-------------11-9----11-9-11-9-11p9--------9/11-9-----
D|-7-9-11-----------11----------------11-9-7--------11\-
A|------------------------------------------------------
E|------------------------------------------------------

Pre-Chorus

e|-------------------------------------
B|-7b8r7p0---------------5-7b8r7p5-----
G|---------7-6-6b7r6p4-------------7-6-
D|---------------------7---------------
A|-------------------------------------
E|-------------------------------------

Bridge

e|------------------------------------------------------
B|--------10-9------------------------------------------
G|-------------11-9----11-9-11-9-11p9--------9/11-9-----
D|-7-9-11-----------11----------------11-9-7--------11\-
A|------------------------------------------------------
E|------------------------------------------------------

e|--------------------------------------------------------
B|----------12s14-12-10-9---10-9-10-9-10p9----------------
G|--------9---------------9----------------11-9-11-9-11p9-
D|-7-9s11-------------------------------------------------
A|--------------------------------------------------------
E|--------------------------------------------------------

e|---------------------------------
B|---------------------------------
G|-7-9b10-(10)r9-7-6---------------
D|-------------------7\-2-3~-5~-7~-
A|---------------------------------
E|---------------------------------
There's a little bit more here that I can't figure out.

Outro

e|------------------------------------------------------
B|--------10-9------------------------------------------
G|-------------11-9----11-9-11-9-11p9--------9/11-9-----
D|-7-9-11-----------11----------------11-9-7--------11\-
A|------------------------------------------------------
E|------------------------------------------------------

e|------------------------------------------------------------
B|----------12s14-12-10-9---10-9-10-9-10p9--------------------
G|--------9---------------9----------------11-9-11-9-11p9-7-9-
D|-7-9s11-----------------------------------------------------
A|------------------------------------------------------------
E|------------------------------------------------------------

RHYTHM

Intro

e|------------------------------------
B|------------------------------------
G|-----6-7-7-4-4-7-6-6-------6-7-7-2/-
D|-7-7-6-7-7-4-4-7-6-6-7-7---6-7-7-2/-
A|-7-7-4-5-5-2-2-5-4-4-7-7---4-5-5-4/-
E|-5-5-----------------5-5------------
I don't think he actually slides, there, but I can't figure out what he does.

e|-----------------------------------------------------------------
B|-----------------------------------------------------------------
G|-------------------------------------------------7-7-7-7-7-7-7-7-
D|-7-7-7-7-7-7-7-7-2-2-2-2-2-2-2-2-4-4-4-4-4-4-4-4-7-7-7-7-7-7-7-7-
A|-7-7-7-7-7-7-7-7-2-2-2-2-2-2-2-2-4-4-4-4-4-4-4-4-5-5-5-5-5-5-5-5-
E|-5-5-5-5-5-5-5-5-0-0-0-0-0-0-0-0-2-2-2-2-2-2-2-2-----------------

Verse

e|-------------------------------------------------
B|-------------------------------------------------
G|-------------7-7-7-7-7-7-------------------------
D|-7-7-7-7-7-7-7-7-7-7-7-7-4-4-4-4-4-4-5-5-5-5-5-5-
A|-7-7-7-7-7-7-5-5-5-5-5-5-4-4-4-4-4-4-5-5-5-5-5-5-
E|-5-5-5-5-5-5-------------2-2-2-2-2-2-3-3-3-3-3-3-

e|-------------------------------------------------
B|-------------------------------------------------
G|-------------7-7-7-7-7-7-------------------------
D|-7-7-7-7-7-7-7-7-7-7-7-7-4-4-4-4-4-4-5-5-5-5-5-5-
A|-7-7-7-7-7-7-5-5-5-5-5-5-4-4-4-4-4-4-5-5-5-5-5-5-
E|-5-5-5-5-5-5-------------2-2-2-2-2-2-3-3-3-3-3-3-
Last verse uses the same strumming pattern, but with the chords for the chorus.

Pre-Chorus
[ Tab from: http://www.guitartabs.cc/tabs/t/treble_charger/american_psycho_tab_ver_4.html ]
e|-------------------------------------------------
B|-------------------------------------------------
G|-------------6-6-7-7---------------------6-6-7-7-
D|-4-4-5-5-7-7-6-6-7-7-7-7-4-4-5-5-7-7-7-7-6-6-7-7-
A|-4-4-5-5-7-7-4-4-5-5-7-7-4-4-5-5-7-7-7-7-4-4-5-5-
E|-2-2-3-3-5-5---------5-5-2-2-3-3-5-5-5-5---------
Let the last chord ring.

Chorus

e|-----------------------------------------------------------------
B|-----------------------------------------------------------------
G|-------------------------------------------------7-7-7-7-7-7-7-7-
D|-7-7-7-7-7-7-7-7-2-2-2-2-2-2-2-2-4-4-4-4-4-4-4-4-7-7-7-7-7-7-7-7-
A|-7-7-7-7-7-7-7-7-2-2-2-2-2-2-2-2-4-4-4-4-4-4-4-4-5-5-5-5-5-5-5-5-
E|-5-5-5-5-5-5-5-5-0-0-0-0-0-0-0-0-2-2-2-2-2-2-2-2-----------------

e|-----------------------------------------------------------------
B|-----------------------------------------------------------------
G|-------------------------------------------------7-7-7-7-7-7-7-7-
D|-7-7-7-7-7-7-7-7-2-2-2-2-2-2-2-2-4-4-4-4-4-4-4-4-7-7-7-7-7-7-7-7-
A|-7-7-7-7-7-7-7-7-2-2-2-2-2-2-2-2-4-4-4-4-4-4-4-4-5-5-5-5-5-5-5-5-
E|-5-5-5-5-5-5-5-5-0-0-0-0-0-0-0-0-2-2-2-2-2-2-2-2-----------------

e|-----------------------------------------
B|-----------------------------------------
G|-----6-7-7-4-4-7-6-6-----6-7-7-4-4-7-6-6-
D|-7-7-6-7-7-4-4-7-6-6-7-7-6-7-7-4-4-7-6-6-
A|-7-7-4-5-5-2-2-5-4-4-7-7-4-5-5-2-2-5-4-4-
E|-5-5-----------------5-5-----------------
Only play this part the first time

Bridge

e|-----------------------------------------------------------------
B|-----------------------------------------------------------------
G|-------------------------------------------------7-7-7-7-7-7-7-7-
D|-7-7-7-7-7-7-7-7-2-2-2-2-2-2-2-2-4-4-4-4-4-4-4-4-7-7-7-7-7-7-7-7-
A|-7-7-7-7-7-7-7-7-2-2-2-2-2-2-2-2-4-4-4-4-4-4-4-4-5-5-5-5-5-5-5-5-
E|-5-5-5-5-5-5-5-5-0-0-0-0-0-0-0-0-2-2-2-2-2-2-2-2-----------------

e|-----------------------------------------------------------------
B|-----------------------------------------------------------------
G|-------------------------------------------------7-7-7-7-7-7-7-7-
D|-7-7-7-7-7-7-7-7-2-2-2-2-2-2-2-2-4-4-4-4-4-4-4-4-7-7-7-7-7-7-7-7-
A|-7-7-7-7-7-7-7-7-2-2-2-2-2-2-2-2-4-4-4-4-4-4-4-4-5-5-5-5-5-5-5-5-
E|-5-5-5-5-5-5-5-5-0-0-0-0-0-0-0-0-2-2-2-2-2-2-2-2-----------------

e|---------------------------------------------------
B|---------------------------------------------------
G|-7-7-7-7-7-7-7-7-7-7-7-7-7-7-7-7-------------------
D|-7-7-7-7-7-7-7-7-7-7-7-7-7-7-7-7-7-7-7-5-5-5-4-4-4-
A|-5-5-5-5-5-5-5-5-5-5-5-5-5-5-5-5-7-7-7-5-5-5-4-4-4-
E|---------------------------------5-5-5-3-3-3-2-2-2-

e|---------------------------------------------
B|---------------------------------------------
G|---------------------------------------------
D|-4-4-4-4-4-4-4-4-4-4-4-4-4-4-4-4-4-5-7-5-4-2-
A|-4-4-4-4-4-4-4-4-4-4-4-4-4-4-4-4-4-5-7-5-4-2-
E|-2-2-2-2-2-2-2-2-2-2-2-2-2-2-2-2-2-3-5-3-2-0-
Not too sure about those last 2 parts.

Outro

e|-----------------------------------------------------------------
B|-----------------------------------------------------------------
G|-------------------------------------------------7-7-7-7-7-7-7-7-
D|-7-7-7-7-7-7-7-7-2-2-2-2-2-2-2-2-4-4-4-4-4-4-4-4-7-7-7-7-7-7-7-7-
A|-7-7-7-7-7-7-7-7-2-2-2-2-2-2-2-2-4-4-4-4-4-4-4-4-5-5-5-5-5-5-5-5-
E|-5-5-5-5-5-5-5-5-0-0-0-0-0-0-0-0-2-2-2-2-2-2-2-2-----------------

e|-----------------------------------------------------------------
B|-----------------------------------------------------------------
G|-------------------------------------------------7-7-7-7-7-7-7-7-
D|-7-7-7-7-7-7-7-7-2-2-2-2-2-2-2-2-4-4-4-4-4-4-4-4-7-7-7-7-7-7-7-7-
A|-7-7-7-7-7-7-7-7-2-2-2-2-2-2-2-2-4-4-4-4-4-4-4-4-5-5-5-5-5-5-5-5-
E|-5-5-5-5-5-5-5-5-0-0-0-0-0-0-0-0-2-2-2-2-2-2-2-2-----------------

e|-------------------------------------------
B|-------------------------------------------
G|-----6-7-7-4-4-7-6-6-----6-7-7-4-4-7-6-6---
D|-7-7-6-7-7-4-4-7-6-6-7-7-6-7-7-4-4-7-6-6-7-
A|-7-7-4-5-5-2-2-5-4-4-7-7-4-5-5-2-2-5-4-4-7-
E|-5-5-----------------5-5-----------------5-
Comments