Treble Charger - American Psycho Chords & Tabs

 

American Psycho Chords & Tabs

Treble Charger Chords & Tabs

Version: 2 Type: Tab 2 ratings
1 star 2 stars 3 stars 4 stars 5 stars
comments

American Psycho Tab

#----------------------------------PLEASE NOTE--------------------------------#
#This file is the author's own work and represents their interpretation of the#
#song. You may only use this file for private study, scholarship, or research.#
#-----------------------------------------------------------------------------#
#-- File created with Instab - http://www.pconline.com/~smcarey/instab.html --#
#-----------------------------------------------------------------------------#

Author/Artist: treble charger
Title: american psycho
Album: wide awake bored
Transcribed by: anthony dileo
Email: fishmunky109@hotmail.com

this is an awesome song by a kick-ass canadian band
if you've heard the song u know what im talkin about
e mail me 4 requests.

---|-----------------|--------------|-----------------------------------------
---|-----------------|--------------|-----------------------------------------
---|--------6---7--7-|-4-4--7--6-6--|------6--7-7---7-------------------------
---|-7--7---6---7--7-|-4-4--7--6-6--|-7-7--6--7-7---7-------------------------
---|-7--7---4---5--5-|-2-2--5--4-4--|-7-7--4--5-5---5-------------------------
---|-5--5------------|--------------|-5-5-------------------------------------
                  intro                             (p.m 1 bar)               
[ Tab from: http://www.guitartabs.cc/tabs/t/treble_charger/american_psycho_tab_ver_2.html ]
---|------------------------|---------------------------------|---------------
---|-----------10-9---------|---------------------------------|---------------
---|----------------11-9----|-11-9-11-9-11-9----------11-9----|---------------
---|-----9-11------------11-|----------------11-9----------11-|---------------
---|--12--------------------|---------------------12----------|---------------
---|------------------------|---------------------------------|---------------
           intro solo thingie                                                 

---|-------------------------|-----------------------|------------------------
---|-------------------------|-----------------------|------------------------
---|-------7-----------------|-------7-----------7---|------------------------
---|-7-----7-----4-----5-----|-7-----7-----4-----7---|------------------------
---|-7-----5-x8--4-----5-----|-7-----5-x8--4-----5-x8|------------------------
---|-5-x8--------2-x8--3-x8--|-5-x8--------2-x8------|------------------------
 verse all palm muted                                                         

---|---------------|---------------|---------------|-----------2-|------------
---|---------------|---------------|---------------|-----------3-|------------
---|---------------|-6-6--7-7------|---------------|-6-6--7-7--2-|------------
---|-4-4--5-5--7-7-|-6-6--7-7--7-7-|-4-4--5-5--7-7-|-6-6--7-7--0-|------------
---|-4-4--5-5--7-7-|-4-4--5-5--7-7-|-4-4--5-5--7-7-|-4-4--5-5----|------------
---|-2-2--3-3--5-5-|-----------5-5-|-2-2--3-3--5-5-|-------------|------------
                 pre-chorus                                                   

---|-------------------------|------------------------------------------------
---|-------------------------|------------------------------------------------
---|-2-----------------7-----|------------------------------------------------
---|-2-----2-----4-----7-----|------------------------------------------------
---|-0-x8--2-----4-----5-x8--|------------------------------------------------
---|-------0-x8--2-x8--------|------------------------------------------------
     chorus x2                                                                

Comments