Treble Charger - American Psycho Chords & Tabs

 

American Psycho Chords & Tabs

Treble Charger Chords & Tabs

Version: 1 Type: Tab 1 rating
1 star 2 stars 3 stars 4 stars 5 stars
comments

American Psycho Tab

Song:American Psyco	
By:Treble Charger
Date:Fri, Aug.10
From: Adam Krawtschenko

This is my first song tabbed so it might be the greatest tab but the song is correct.

This only first guitar!!!!



The whole song is done in heavy distorion!

Intro
e|-------------------------------------------------------------------------------
b|-------------------------------------------------------------------------------
g|----------------6-7-7------------5-6-6------------6-7-7-----------------
d|-7-7----------6-7-7---9-9-----5-6-6---7-7----6-7-7---9~-----------
a|-7-7----------4-5-5---9-9-----7-4-4---7-7----4-5-5---9~-----------
e|-5-5-------------------- 7-7---------------5-5---------------7~----------

Riff 1

e|------------5--4--2--0-------2--0--2--0--2--0---------------2--0------
b|--------2------------------2--------------------------2--0---------------2--
g|-2--4---------------------------------------------------------2---------------
d|--------------------------------------------------------------------------------
a|--------------------------------------------------------------------------------
e|--------------------------------------------------------------------------------

Verse

e|--------------------------------------------------------2h3p2p0---------------------------0--
b|----------------------------------------------------------------------3--2~--2h3p3p0------------
g|-----------7--------------------------------------------------------------------------------2-----
d|--7-------7-----4-----5-------------------------------------------------------------------------------
a|--7-------5-----4-----5------(Play this twice)-------------------------------------------------
e|--5--------------2-----3----------------------------------------------------------------------------

Verse con.

e|-2h3p2p0----------------------------------------------------------------------------------------
b|---------------3-2~------------------------------------------------------------------------------------
g|-------------------------------------------------------7-7------------------------------------------
d|----------------------------4-4-----5--------5------7-7----------------------------------------------
a|----------------------------4-4-----5--------5------5-5--------------------------------------
e|----------------------------2-2-----3--------3------------------------------------------------------

Chorus(Listen to C.d for rythm)
[ Tab from: http://www.guitartabs.cc/tabs/t/treble_charger/american_psycho_tab.html ]
e|-------------------------------------------------------------------------------------------------------
b|--------------------------------------------------------------------------------------------------------
g|--------------9-9-9--------------7-7-7---------------------------------------------------------------
d|---7-7-7----9-9-9---4-4-4---7-7-7------------x2-------------------------------------------------
a|---7-7-7----7-7-7---4-4-4---5-5-5---------------------------------------------------------------
e|---5-5-5--------------2-2-2----------------------------------------------------------------

Riff2 only after 1st chorus		

e|-----------------------------------------------------------------------------------------------
b|---------13---14-14------------14---13-13----------------------------------------------------
g|----------------------------------------------------------------------------------------------
d|--7-7--------------------9-9-------------------------------------------------------------------
a|--7-7--------------------9-9-------------------------------------------------------------------
e|--5-5--------------------7-7----------------------------------------------------------------------

riff 3

e|-------------5-4-2-0-----2-0-2-0-2-0--------------2--0-----------0-9-7-5-4-5-4-5-4-5-4--
b|---------2--------------2-------------------2--0---------------2----2-------------------------------
g|-2--4-----------------------------------------------2--------------2-------------------------------
d|-------------------------------------------------------------------------------------------------------
a|--------------------------------------------------------------------------------------------------------
e|-------------------------------------------------------------------------------------------------------

e|-/-2-0--2-0-2-0-2-0---------------------------------------------------------------------
b|--------------------------2/5^--(let ring)-------------------------------------------------------------
g|------------------------------------------------7-6----------------------------------------------------
d|-------------------------------------------------------7---------------------------------
a|----------------------------------------------------------7-8~--------------------------------
e|-----------------------------------------------------------------------------------------------
What em I supposed to do
When you know that it's all true

e|------5--0------9--5------7--9--5--7~-----------------------------------
b|--2----------2--------------------------------------------------------
g|-----------------------------------------------------------------------------
d|--------------------------------------------------------------------------------
a|-------------------------------------------------------------------------------
e|-------------------------------------------------------------------------------
That you Stole...................

e|-----------------------------------------------------------------------
b|---------------------------------------------------------------------
g|--------------------------------------------------------------------------
d|-----------------------------------------------------------------------
a|-5--7--9--7/-5--7/-------------------------------------------------------
e|-5--7--9--7/-5--7/--------------------------------------------------------
    p.m.
Pre maddona.....

The Last verse is done like the chorus not the the other verses!!!!

Comments