Treble Charger - American Psycho Chords & Tabs

 

American Psycho Chords & Tabs

Treble Charger Chords & Tabs

Version: 1 Type: Bass Tab 0 ratings
1 star 2 stars 3 stars 4 stars 5 stars
comments

American Psycho Bass Tab

Author/Artist: Treble Charger 
Title: American Phsycho (BASS TAB) (BASIC) 
Album: Wide Awake Bored 
tabbed by: metallicabassplayer (this is the first one i ever tabbed, so it may be very wrong but it sounded right when i played with there cd.

Intro 1X 
Chorus 1X 
Verse 2X 
Pre-Chorus 
Chorus 2X 
Intro part again 1X 
Verse 2X 
Pre-Chorus 
Chorus 4X 
What am i sposed 2 do part... 1X 
Chorus 6X 
Intro part again 1X 

Intro 
------------------------------------------------------------------------------ 

------------------------------------------------------------------------------ 

------4-5-5-----5-4-4-----4-5-5--5-5-5-5-7-7-7-7------------------------------ 

--5-5-------7-7-------5-5----------------------------------------------------- 



Chorus 
------------------------------------------------------------------------------ 

------------------------------------------------------------------------------ 

------------------------------------------------------5-5-5-5-5-5-5-5--------- 

---5-5-5-5-5-5-5-5--0-0-0-0-0-0-0-0--2-2-2-2-2-2-2-2-------------------------- 



Verse 
------------------------------------------------------------------------------ 

------------------------------------------------------------------------------ 

--------------------5-5-5-5-5-5-5-5------------------5-5-5-5-5-5-5-5---------- 
[ Tab from: http://www.guitartabs.cc/tabs/t/treble_charger/american_psycho_btab.html ]
---5-5-5-5-5-5-5-5------------------2-2-2-2-2-2-2-2--------------------------- 



Pre-Chorus 
------------------------------------------------------------------------------ 

------------------------------------------------------------------------------ 

----------------------------------4-4-4-5-5-5-5------------------------------- 

--2-2-2-3-3-3-3-5-5-5-5-5-5-5-5-----------------5-5-5-5-5-5-5-5--------------- 




------------------------------------------------------------------------------ 

------------------------------------------------------------------------------ 

----------------------------------4-4-4-5-5-5-5--7---------------------------- 

--2-2-2-3-3-3-3-5-5-5-5-5-5-5-5----------------------------------------------- 



What am i sposed 2 do part... 
------------------------------------------------------------------------------ 

------------------------------------------------------------------------------ 

---5---------------5-5-5-5-5-5-5-5-------------------------------------------- 

-----------5-----------------------5-5-5-5-5-5-5-5-3-3-3-3-3-3-3-3-2-2-2-2-2-- 



------------------------------------------------------------------------------ 

------------------------------------------------------------------------------ 

-----5-5-5-5-5-5-5-5-5-5-5-5-5-5-5-5------------------------------------------ 

-2-2--------------------------------------------------------------------------
Comments