Treble Charger - 10th Grade Love Chords & Tabs

 

10th Grade Love Chords & Tabs

Treble Charger Chords & Tabs

Version: 1 Type: Tab 0 ratings
1 star 2 stars 3 stars 4 stars 5 stars
comments

10th Grade Love Tab

   
#----------------------------------PLEASE NOTE---------------------------------#
#This file is the author's own work and represents their interpretation of the-#
#song. You may only use this file for private study, scholarship, or research.-#
#------------------------------------------------------------------------------#
Treble Charger-"10th Grade Love"
from the album "nc17", 
words and music by Greig Nori, Rosie Martin, Bill Priddle,
		   Morris Palter
tabbed by: Jd Dude

tune gtr. 1 'G' string down half step 
(low to high): E A D Gm B E

Intro/Verse-Fig. 1
Gtr. 1 clean
Play 8 times
|----------------------------------------------------------|
|----------------------------------------------------------|
|-10---10--10-7--10---10--10-7--10---10--10-7---7--77779---|
|--9----9---9-9---9----9---9-9---9----9---9-9---6--66668---|
|--7----7---7-7---7----7---7-7---7----7---7-7---4--44446---|
|----------------------------------------------------------|

Gtr. 2 w/ dist.
Play 6 times
|----------------------------------------------------------|
|--------------------------------------------------9-------|
|-11--11--11-13----11--11-13----11--11-13----9--9-----9----|
|----------------------------------------------------------|
|----------------------------------------------------------|
|----------------------------------------------------------|


Chorus-Fig. 2
Gtr. 1+2
|-0--0--0--0--0-0--0--0--0--0--0--0-0--0--|
|-0--0--0--0--0-0--0--2--2--2--2--2-2--2--|
|-1--1--1--1--1-1--1--2--2--2--2--2-2--2--|
|-2--2--2--2--2-2--2--2--2--2--2--2-2--2--|
|-2--2--2--2--2-2--2--0--0--0--0--0-0--0--|
|-----------------------------------------|

|-0--0--0--0--0-0--0--0--0--0--0--0-0--0--|
|-0--0--0--0--0-0--0--2--2--2--2--2-2--2--|
|-1--1--1--1--1-1--1--2--2--2--2--2-2--2--|
|-2--2--2--2--2-2--2--2--2--2--2--2-2--2--|
|-2--2--2--2--2-2--2--0--0--0--0--0-0--0--|
|-----------------------------------------|

|-0--0--0--0--0-0--0--0--0--0--0--0-0--0--|
|-0--0--0--0--0-0--0--2--2--2--2--2-2--2--|
|-1--1--1--1--1-1--1--2--2--2--2--2-2--2--|
|-2--2--2--2--2-2--2--2--2--2--2--2-2--2--|
|-2--2--2--2--2-2--2--0--0--0--0--0-0--0--|
|-----------------------------------------|

|-0--0--0--0--0-0--0--0--0--0--0--0-0--0--|
|-0--0--0--0--0-0--0--2--2--2--2--2-2--2--|
|-1--1--1--1--1-1--1--2--2--2--2--2-2--2--|
|-2--2--2--2--2-2--2--2--2--2--2--2-2--2--|
|-2--2--2--2--2-2--2--0--0--0--0--0-0--0--|
|-----------------------------------------|

|-3--3--3-3--3--3-3--3-3-0--0--0-0--0--0-0--0-0-|
|-0--0--0-0--0--0-0--0-0-2--2--2-2--2--2-2--2-2-|
|-0--0--0-0--0--0-0--0-0-2--2--2-2--2--2-2--2-2-|
|-0--0--0-0--0--0-0--0-0-2--2--2-2--2--2-2--2-2-|
|-2--2--2-2--2--2-2--2-2-0--0--0-0--0--0-0--0-0-|
|-3--3--3-3--3--3-3--3-3------------------------|

|-0--0--0-0--0--0-0--0-0-0-------0-------------------------|
|-2--2--2-2--2--2-2--2-2-2-x-4-x-0-------------------------|
|-2--2--2-2--2--2-2--2-2-2-x-4-x-1-------------------------|
|-2--2--2-2--2--2-2--2-2-2-x-4-x-2-------------------------|
|-0--0--0-0--0--0-0--0-0-0---2---2-------------------------|
|----------------------------------------------------------|


Interlude-Fig. 3a
Gtr. 1+2 w/ dist.
Play twice
All bends full
|----------------------------------------------------------|
|--9----9----9----9----9---9--10---10---10---10---10--10---|
|-11^--11^--11^--11^--11^-11^-12^--12^--12^--12^--12^-12^--|
|----------------------------------------------------------|
|----------------------------------------------------------|
|----------------------------------------------------------|
[ Tab from: http://www.guitartabs.cc/tabs/t/treble_charger/10th_grade_love_tab.html ]
Fig. 3b
Gtr. 1 w/ dist.
All bends full
|----------------------------------------------------------|
|--9----9----9----9----9----7---7---7---7---7-----9----9---|
|-11^--11^--11^--11^--11^---9^--9^--9^--9^--9^---11^--11^--|
|----------------------------------------------------------|
|----------------------------------------------------------|
|----------------------------------------------------------|
                                            *hold       *hold
|----------------------------------------------------------|
|--9----9----9----10---10---10---10---10----8---------10---|
|-11^--11^--11^---12^--12^--12^--12^--12^--10^--------12^--|
|----------------------------------------------------------|
|----------------------------------------------------------|
|----------------------------------------------------------|

Gtr. 2 w/ dist.
All bends full
|----------------------------------------------------------|
|-16---16---16---16---16--16---16---16---16---16---16--16--|
|-18^--18^--18^--18^--18^-18^--19^--19^--19^--19^--19^-19^-|
|----------------------------------------------------------|
|----------------------------------------------------------|
|----------------------------------------------------------|

|----------------------------------------------------------|
|-16---16---16---16---16--16---14---14---14---14---14--14--|
|-18^--18^--18^--18^--18^-18^--16^--16^--16^--16^--16^-16^-|
|----------------------------------------------------------|
|----------------------------------------------------------|
|----------------------------------------------------------|
    *hold                                       *hold
|----------------------------------------------------------|
|-12-------------------------------------------------------|
|-14^-----------^(14)--14------14--13\9---9--8--4----------|
|----------------------------------------------------------|
|----------------------------------------------------------|
|----------------------------------------------------------|


Outro-Fig. 4
Gtr. 1 clean
Play 14 times              *end with:
|--------------------------|-------------------------------|
|-7---4---5--5-5--5-5-5-5--|-7-x-4-x-5---------------------|
|-6-x-3-x-4--4-4--4-4-4-4--|-6-x-3-x-4---------------------|
|-4-x-1-x-2--2-2--2-2-2-2--|-4-x-1-x-2---------------------|
|-4-x-1-x-2--2-2--2-2-2-2--|-4-x-1-x-2---------------------|
|--------------------------|-------------------------------|

Gtr. 2
Play 8 times
|----------------------------------------------------------|
|----------------------------------------------------------|
|-7-x-11-x-9--9-9--9-9-9-----------------------------------|
|-8-x-11-x-9--9-9--9-9-9-----------------------------------|
|-6-x--9-x-7--7-7--7-7-7-----------------------------------|
|----------------------------------------------------------|

w/ dist.
All bends full
|----------------------------------------------------------|
|-2---4----9-----9----9------9----9----9----9----9-\---9---|
|-4^--6^--11^--(13)-(13)---(13)-(13)-(13)-(13)-(13)\--11^--|
|----------------------------------------------------------|
|----------------------------------------------------------|
|----------------------------------------------------------|

|----------------------------------------------------------|
|---9----9----9----9----9----9----9----9-\---9-----9----9--|
|-(13)-(13)-(13)-(13)-(13)-(13)-(13)-(13)\--11^--(13)-(13)-|
|----------------------------------------------------------|
|----------------------------------------------------------|
|----------------------------------------------------------|

|----------------------------------------------------------|
|---9----9-------7---x--9----x--5--------------------------|
|-(13)-(13)------9^--x--11^--x--7^-------------------------|
|----------------------------------------------------------|
|----------------------------------------------------------|
|----------------------------------------------------------|

=============================================================================
Comments