Trebicka Ardjan - Ti Me Pelqen Solo Chords & Tabs

 

Ti Me Pelqen Solo Chords & Tabs

Trebicka Ardjan Chords & Tabs

Version: 1 Type: Tab 0 ratings
1 star 2 stars 3 stars 4 stars 5 stars
comments

Ti Me Pelqen Solo Tab

   
-------------------------------------------------------------------------------
			     Ti më Pëlqen - Ardjan Trebicka
-------------------------------------------------------------------------------

Tabbed by: arber_mc
Email:arber_mc@hotmail.com

Tuning: Standard

Solo:

e|---------11-11~~-13-14-13-11---11-11-11--9-9-9--7-7-7--6-4-6/7-6-----------|
B|---------------------------------------------------------------------------|
G|-8-10-11-------------------------------------------------------------------|

[ Tab from: http://www.guitartabs.cc/tabs/t/trebicka_ardjan/ti_me_pelqen_solo_tab.html ]
e|---6-8/9-7-6---------------------------------------------------------------|
B|--------------9-7-6-8/9-7-6/7-6-4—(4)-(4)------4h6/7-6--9--7--11--9—12--11---|
G|---------------------------------------------------------------------------|

e|--11--14-13—14/16--14—13h11h9—-------------------------|
B|------------------------------12-11-9------------------|
G|--------------------------------------11-10-8~~~~------|


| /  slide up
| \  slide down
| h  hammer-on
| p  pull-off
| ~  vibrato

===============================================================================
Comments