Trebicka Ardjan - Lule Lule Mace Mace Chords & Tabs

 

Lule Lule Mace Mace Chords & Tabs

Trebicka Ardjan Chords & Tabs

Version: 1 Type: Tab 0 ratings
1 star 2 stars 3 stars 4 stars 5 stars
comments

Lule Lule Mace Mace Tab

-------------------------------------------------------------------------------
		    Lule Lule Macë Macë – Ardjan Trebicka
-------------------------------------------------------------------------------
Tabbed by: arber_mc
Email:arber_mc@hotmail.com

Tuning:Standard

Intro
e|---5--3--1--0--------0-------------------|---5--3--1--0--------1--0----------|
B|---6--0--1--1--------1---------4/5-------|---6--0--1--1--------1--1----------|
G|---7--0--------1--1------1--1--------5-5-|---7--0--------1--1--------1--2----|
D|---0-----------2--2------2--2------------|---0-----------2--2--------2--2----|
A|---------------2--2------2--2------------|---------------2--2--------2-------|
E|-----------------------------------------|-----------------------------------|

Fill 1
e|---6-7-8-----10-11-12--|

Solo
e|--------------------------------------------|
B|----------8-10-12/13-13-12—--12—-12---------|
G|---8-9-11-------------------12--12----------|
D|---------------------------12--12-----------|
A|--------------------------------------------|
E|--------------------------------------------|
[ Tab from: http://www.guitartabs.cc/tabs/t/trebicka_ardjan/lule_lule_mace_mace_tab.html ]
3 here te tjera
e|--/12-12-12-12--10-12-12/13-12—10h12p10-8—7h8p7-5------5-----5-------------|
B|-----------------------------------------------------5-----5---------------|
G|---------------------------------------------------5-----5-----------------|
D|---------------------------------------------------------------------------|
A|---------------------------------------------------------------------------|
E|---------------------------------------------------------------------------|

Fill 2
e|---12-12-12--10-10-10-10-10-10—8\7-7----------|

Fill 3
e|-----------------------------------------------------|
B|---12-10-9-------------------------------------------|
G|-----------10-9--------------------------------------|
D|----------------12-10-----9-10/12-10-9---------------|

Fill 4
e|---12—12/13-12-10—8h10p8-7--------|

Fill 5
e|--15-15-15---13-13-13---12-12-12---10-10-10---8\7---------|

Fill 6
e|---8-7-5-8-10—7h8p7--10-8-7\5---------------|


Gjate kenges shoqerimi behet me Em dhe A.
Degjo kengen qe ti kapesh ritmin tek:
http://muzika.albasoul.com/?id=122&cache=1043644378&PHPSESSID=48e0cdde017204bdf14afba2d19a34ef

Renditja:
Intro
Fill 1
Intro
Fill 1
Intro
Solo x2
Refreni
Solo X3
Refreni
Fill 2
Fill 3
Fill 4
Fill 3
Fill 5
Fill 6
Fund
Comments