Travis Tritt - Modern Day Bonnie And Clyde Solo Chords & Tabs

 

Modern Day Bonnie And Clyde Solo Chords & Tabs

Travis Tritt Chords & Tabs

Version: 1 Type: Tab 0 ratings
1 star 2 stars 3 stars 4 stars 5 stars
comments

Modern Day Bonnie And Clyde Solo Tab

   
Tuning : E A D G B E 	Time Signature: 4/4

h = hammer on
p = pull off
c = choke


I did not tab this in dropped D tuning, as I don't play this song that way.
So, some up the tabs is moved up to standard tuning. This only occurs at the
start and at the end, and a one noter in the middle somewhere.


Like a modern day bonnie and clyde................................
 |               |               |               |                
|----------------------------------------------------------------|
|----------------------------------------------------------------|
|----------------------------------------------------------------|
|----------------------------------------------------------------|
|----------------------------------------------------------------|
|----------------------------------------------------------------|

 |               |               |               |                
|----------------------------------------------------------------|
|----------------------------------------------------------------|
|----------------------------------------------------------------|
|----0---0---0---0---0---0---0---0-----------0/--3---0/--3---0/--|
|----------------------------------------------------------------|
|----------------------------------------------------------------|

 |               |               |               |                
|----------------------------------------------------------------|
|--------------------------------------------6---8---------------|
|------------------------7---5---7---5---7-----------------------|
|3---0-----------------------------------------------------------|
|--------3---0---3---0-------------------------------------------|
|----------------------------------------------------------------|

 |               |               |               |                
|------------------------10----------------------------------1---|
|8-------6---------------10--------------------------1---3-------|
|----------------7---0-------------------------------------------|
|----------------------------------------------------------------|
|----------------------------------------------------------------|
|----------------------------------------------------------------|

 |               |               |               |                
|3-----------------------------------------------3---------------|
|3-------3---0---6p3-3-----------6p3-3-----------3---------------|
|------------------------5p0-0-----------5p0-0-------------------|
|----------------------------------------------------------------|
|----------------------------------------------------------------|
|----------------------------------------------------------------|

 |               |               |               |                
|--3-----------3-----1-----------3-------------3-----1-----------|
|--3-----------3-----1---3p1-1---3-------------3---------3p1-1---|
|----------------------------------------------------------------|
|----------------------------------------------------------------|
|----------------------------------------------------------------|
|----------------------------------------------------------------|
[ Tab from: http://www.guitartabs.cc/tabs/t/travis_tritt/modern_day_bonnie_and_clyde_solo_tab.html ]
 |               |               |               |                
|3---------------5-----------6-------------------------------3---|
|3---------------5-----------6-------8---------------3---6-------|
|------------------------------------7---------------------------|
|----------------------------------------------------------------|
|----------------------------------------------------------------|
|----------------------------------------------------------------|

 |               |               |               |                
|5-----------3---------------------------------------------------|
|----------------3---------------3p1-1---------------------------|
|----------------------------------------2p0-0---2p0-0-----------|
|--------------------------------------------------------2p0-0---|
|----------------------------------------------------------------|
|----------------------------------------------------------------|

 |               |               |               |                
|--------------------------------------------3-------5-------8---|
|--------------------------------------------3-------5-------8---|
|----------------------------------------------------------------|
|5---0-------------------------------0---------------------------|
|--------3---0---3---0-------------------------------------------|
|------------------------3---3---0-------------------------------|

 |               |               |               |                
|------------------------------------------------12--12--12------|
|--------10------10------------------------------12--12--12------|
|--------9-------9-----------------------------------------------|
|----------------------------------------------------------------|
|----------------------------------------------------------------|
|----------------------------------------------------------------|

 |               |               |               |                
|12--12--12------15--------------12------------------------------|
|12--12--12------15----------------------------------------------|
|------------------------------------------------12--10----------|
|--------------------------------------------------------12------|
|----------------------------------------------------------------|
|----------------------------------------------------------------|

 |               |               |               |                
|----------------------------------------3c------1---------------|
|----------------------------1---1h3p1---------------1---3---1---|
|----------------------------------------------------------------|
|12--------------------------------------------------------------|
|----------------------------------------------------------------|
|----------------------------------------------------------------|

 |               |               |               |                
|----------------------------------------------------------------|
|3---1-----------------------------------------------------------|
|--------2c------2c----------------------------------------------|
|------------------------3---0-------------------------------0---|
|--------------------------------3---0---3---0---3---0---3-------|
|----------------------------------------------------------------|

 |               |               |               |                
|----------------------------------------------------------------|
|----------------------------------------------------------------|
|----------------------------------------------------------------|
|0---------------------------------------------------------------|
|----------------------------------------------------------------|
|----------------------------------------------------------------|

Comments