Travis Tritt - Modern Day Bonnie And Clyde Correct Chords & Tabs

 

Modern Day Bonnie And Clyde Correct Chords & Tabs

Travis Tritt Chords & Tabs

Version: 1 Type: Tab 0 ratings
1 star 2 stars 3 stars 4 stars 5 stars
comments

Modern Day Bonnie And Clyde Correct Tab

   
Travis Tritt - Modern Day Bonnie And Clyde (picking pattern)

By axehappy - axehappy@countrytabs.com

This is the pattern I use to play this song. 
It fits in with the recording, but it isn't exactly what is being played. I've just
tabbed the picking in the 'intro' section, because you can use the same kind
of pattern throughout.

************************************************************************************


   Dm                  G      G7      Dm

E-----------1b-------------3------1---------1b---------------1b-----------
B----1h3-3-----3--1h3---0----0-0--0-----1-3----3-1-1h3---1-3-----3-1-1h3--
G----2------------2-----0------0--------2-2----2-2-2-----2-2-----2-2-2----
D--0----0-0-0-0-0-0-------0-0------0--0---0-0-0-0------0---0-0-0--0-------
A--------------------------------2----------------------------------------
E----------------------3------3-------------------------------------------
[ Tab from: http://www.guitartabs.cc/tabs/t/travis_tritt/modern_day_bonnie_and_clyde_correct_tab.html ]
   G                   G7      Dm
 
E------3------3-----3------1---------1b---------------1b----------
B---0----0-0-----0----0-0--------1-3----3-1-1h3---1-3----3-1-1h3--
G---0------0-----0------0--------2-2----2-2-2-----2-2----2-2-2----
D-----0-0----0-0---0-0----0-0--0---0-0-0-0------0---0-0-0-0-------
A-----------------------------------------------------------------
E--3------3------3-----3------------------------------------------

   Asus     A       C      G       Dm        

E---------------0--------------3---------1b---------------------------|
B---3----3---2-------3-3----0--------1-3------3-1-1h3-----------------|
G---2--2-----2-------0------0--------2-2------2-2-2-----2p0-0h2-------|
D-----2-2------2-2------0-------0--0---0-0-0-0-0-------0---3---3b-0---|
A--0--------0-------3--3------2---------------------------------------|
E--------------------------3------------------------------------------|

Comments