Travis - Writing To Reach You Chords & Tabs

 

Writing To Reach You Chords & Tabs

Travis Chords & Tabs

Version: 2 Type: Bass Tab 0 ratings
1 star 2 stars 3 stars 4 stars 5 stars
comments

Writing To Reach You Bass Tab

   
Artist: TRAVIS
Song: Writing to reach you
Album: The man who
Tabbed by Marco F. 

Standard tuning E A D G

INTRO 

G -------------   
D ----7-9------
A 7h9-----7----
E ----------9-7

PREVERSE

A ---------------------------------------------2-2-2-2-2---2  
E 2-2-2-2-2---2/5-5-5-5-5---5-0-0-0-0-0---0-----------------

VERSE

...every day i wake up well it's sunday...
[ Tab from: http://www.guitartabs.cc/tabs/t/travis/writing_to_reach_you_btab_ver_2.html ]
G ----------------------------
D 4------------2--------------
A ------0---------------------
E --------------------0-(don't mute the E that you've been playing on D-string
			 while picking that E)


CHORUS

G ---------------       ------------------------------------------------------------
D ---------------       ------------------------------------------------------------
A --------7h9p7-9  (2X) --5-5---------------------4-4-4-4-4--4--------------2----/7
E 5---x-5--------       ------5/4--2-2-2-2-2--2-----------------2-2-2-2-2---------
Comments