Travis - Why Does It Always Rain On Me Chords & Tabs

 

Why Does It Always Rain On Me Chords & Tabs

Travis Chords & Tabs

Version: 1 Type: Bass Tab 0 ratings
1 star 2 stars 3 stars 4 stars 5 stars
comments

Why Does It Always Rain On Me Bass Tab

Artist: Travis
Song: Why does it always rain on me?
Album: The Man Who
Tabbed by: Phil B - Bass Tab Army www.basstabarchive.com

Standard Tunning
G-------------------------------------------------
D-------------------------------------------------
A-7-7-7---7---2-2-2---2---------------------------
E-------5---5-------0---0--5-5-4-4-2-2-0-0--------


G--------------------------------------------------
D--------------------------------------------------
A-7-7-7---7---2-2-2---2--------------------7-------
E-------5---5-------0---0--5-5-4-4-2-2-0-0---------


G--------------------------------------------------
D--------------------------------------------------
A-2-4------2-4-6-7------2-4-------2-4-2------------
E----------------------------------------5-5-5-3-5-


G--------------------------------------------------
D--------------------------------------------------
A---2-2-2---2----------------2-2-2---2-------------
E-3-------0---0--5-5-5-3-5-3-------0---0---5-5-4-4-



G--------------------------------------------------
D--------------------------------------------------
A----------2-2-2---2---2-2-2-2---------------------
E-2-2-0-0--------0---0-----------------------------

Repeat all this again once through for the next verse
and chorus, then it changes to this:


G--------------------------------------------------
D--------------------------------------------------
A-7-7-7---7---2-2-2---2---------------------7-7-7--
E-------5---5-------0---0--5-5-4-4-2-2-0-0---------


G--------------------------------------------------
D--------------------------------------------------
A---7---2-2-2---2---------------------4-4-4-0-4-0--
E-5---5-------0---0--5-5-4-4-2-2-0-0---------------



G--------------------------------------------------
D--------------------------------------------------
A-2-2-2---2----4-4-4-0-4-0-2-2-2---2----5-5-4-4-2--
E-------0---0--------------------0---0-------------


G--------------------------------------------------
D--------------------------------------------------
A-2-0-0-2-2-2-2----2-2-2-2-7------4------2-4-6-7---
E----------------0---------------------------------

[ Tab from: http://www.guitartabs.cc/tabs/t/travis/why_does_it_always_rain_on_me_btab.html ]
G--------------------------------------------------
D--------------------------------------------------
A-2-4-2--------------2-2-2---2---------------------
E--------5-5-5-3-5-3-------0---0--5-5-5-3-5-3------


G--------------------------------------------------
D--------------------------------------------------
A-2-2-2---2---------------------2-2-2---2---2-2-2--
E-------0---0--5-5-4-4-2-2-0-0--------0---0--------


G--------------------------------------------------
D--------------------------------------------------
A-2--7-7-7---7----2-2-2---2------------------------
E----------5---5--------0---0--5-5-4-4-2-2-0-0-----


G--------------------------------------------------
D--------------------------------------------------
A-7-7---7---2-2-2---2---------------------4-4-4-0--
E-----5---5-------0---0--5-5-4-4-2-2-0-0-----------


G--------------------------------------------------
D--------------------------------------------------
A-4-0--2-2-2---2----4-4-4-0-4-0-2-2-2---2----5-5-4-
E------------0---0--------------------0---0--------


G--------------------------------------------------
D--------------------------------------------------
A-4-2-2-0-0-2-2-2-2-2-2-2-2--7-7-7---7----2-2-2----
E----------------------------------5---5--------0--


G--------------------------------------------------
D--------------------------------------------------
A-2---------------------7-7-7---7----2-2-2---2-----
E---0--5-5-4-4-2-2-0-0--------5---5--------0---0---


G--------------------------------------------------
D--------------------------------------------------
A------------------7-7-7---7----2-2-2---2----------
E-5-5-4-4-2-2-0-0--------5---5--------0---0--5-5-4-


G--------------------------------------------------
D--------------------------------------------------
A------------7-7-7---7----2-2-2---2----------------
E-4-2-2-0-0--------5---5--------0---0--5-5-4-4-2-2-


G--------------------------------------------------
D--------------------------------------------------
A-----7--------------------------------------------
E-0-0----------------------------------------------


This is the complete tab for this song just follow 
it carefully and repeat when stated, it's a great
song to play and not hard once you know it. Any 
comments, problems or if you are looking for any 
tabs please email me at new_breeder@hotmail.com or 
be sure to submit the request to the bass tab 
archive, enjoy!



Comments