Travis - U 16 Girls Chords & Tabs

 

U 16 Girls Chords & Tabs

Travis Chords & Tabs

Version: 1 Type: Bass Tab 0 ratings
1 star 2 stars 3 stars 4 stars 5 stars
comments

U 16 Girls Bass Tab

Song: "U16 Girls" [BASS TAB]
Artist: Travis
Album: Good Feeling
Tabbed By: Kris Heding [RadioheadChick@aol.com]
More Travis bass tabs can be found at The Groovy Dougie Fan Club [http://members.aol.com/groovydougie]
If you want to use this tab on a website, please ask my permission! Thanks!

|-----------------------------|
|-----------------------------|
|-----------------------------|
|--0-0-0----------------------|

(Wait until first guitar riff is done, then play this; letting the note ring out)

|---------------|
|---------------|
|---------------|
|--0------------|

(Let ring)

|-------------------------|
|-------------------------|
|-------------------------|
|--0--0--0--0--0--0-------|

|---------------------------------------------------|
|---------------------------------------------------|
|--------------7-7-7-5-5-5-5-0-0-0-0-0-0-0-0-0-0-0--|
|--0-0-0-0-0-0--------------------------------------|


|---------------------------------------------------|
|---------------------------------------------------|
|--------------7-7-7-5-5-5-5-0-0-0-0-0-0-0-0-0-0-0--|
|--0-0-0-0-0-0--------------------------------------|


|-------------------------------------------------|
|-------------------------------------------------|
|----------------5-5--5-5-5-5-0-------------------|
|--0----------------------------------------------|


|-------------------------------------------------|
|-------------------------------------------------|
|----------------5-5--5-5-5-5-0-------------------|
|--0----------------------------------------------|


|-------------------------------------------------|
|-------------------------------------------------|
|--7--7-7-7-7--6--6-6-6-6--5--5-5-5-5--0-0-0-0-0--|
|-------------------------------------------------|


|--------------------------------------------------|
|--------------------------------------------------|
|--3-3-3-3-3-3-3-3-3-3-3--0-0-0-0-0-0-0-5-5-5-5-5--|
|--------------------------------------------------|


|--------------------------------------------------|
|---5-5-5-5-5-5-2-2-2-2-2-2------------------------|
|---------------------------3-3-3-3-3-5-5-5-5-5-5--|
|--------------------------------------------------|


|--------------------------------------------------|
|---5-5-5-5-5-5-2-2-2-2-2-2------------------------|
|---------------------------3-3-3-3-3-5-5-5-5-5-5--|
|--------------------------------------------------|


|--------------------------------------------------|
|--------------------------------------------------|
|--5-5-5-5-5-5-6-6-6-6-6-6-7-7-7-7-7-6-------------|
|--------------------------------------------------|


|---------------------------------------------------|
|---------------------------------------------------|
|--------------7-7-7-5-5-5-5-0-0-0-0-0-0-0-0-0-0-0--|
|--0-0-0-0-0-0--------------------------------------|


|---------------------------------------------------|
|---------------------------------------------------|
|--------------7-7-7-5-5-5-5-0-0-0-0-0-0-0-0-0-0-0--|
|--0-0-0-0-0-0--------------------------------------|


|-------------------------------------------------|
|-------------------------------------------------|
|----------------5-5--5-5-5-5-0-------------------|
|--0----------------------------------------------|


|-------------------------------------------------|
|-------------------------------------------------|
|----------------5-5--5-5-5-5-0-------------------|
|--0----------------------------------------------|

[ Tab from: http://www.guitartabs.cc/tabs/t/travis/u_16_girls_btab.html ]
|-------------------------------------------------|
|-------------------------------------------------|
|--7--7-7-7-7--6--6-6-6-6--5--5-5-5-5--0-0-0-0-0--|
|-------------------------------------------------|


|--------------------------------------------------|
|--------------------------------------------------|
|--3-3-3-3-3-3-3-3-3-3-3--0-0-0-0-0-0-0-5-5-5-5-5--|
|--------------------------------------------------|


|--------------------------------------------------|
|---5-5-5-5-5-5-2-2-2-2-2-2------------------------|
|---------------------------3-3-3-3-3-5-5-5-5-5-5--|
|--------------------------------------------------|


|--------------------------------------------------|
|---5-5-5-5-5-5-2-2-2-2-2-2------------------------|
|---------------------------3-3-3-3-3-5-5-5-5-5-5--|
|--------------------------------------------------|


|--------------------------------------------------|
|--------------------------------------------------|
|--5-5-5-5-5-5-6-6-6-6-6-6-7-7-7-7-7-6-------------|
|--------------------------------------------------|


|---------------------------------------------------|
|---------------------------------------------------|
|--------------7-7-7-5-5-5-5-0-0-0-0-0-0-0-0-0-0-0--|
|--0-0-0-0-0-0--------------------------------------|

|---------------------------------------------------|
|---------------------------------------------------|
|--------------7-7-7-5-5-5-5-0-0-0-0-0-0-0-0-0-0-0--|
|--0-0-0-0-0-0--------------------------------------|

|-------------------------------------------------|
|-------------------------------------------------|
|--7--7-7-7-7--6--6-6-6-6--5--5-5-5-5--0-0-0-0-0--|
|-------------------------------------------------|

|--------------------------------------------------|
|--------------------------------------------------|
|--3-3-3-3-3-3-3-3-3-3-3--0-0-0-0-0-0-0-5-5-5-5-5--|
|--------------------------------------------------|

|--------------------------------------------------|
|---5-5-5-5-5-5-2-2-2-2-2-2------------------------|
|---------------------------3-3-3-3-3-5-5-5-5-5-5--|
|--------------------------------------------------|


|--------------------------------------------------|
|---5-5-5-5-5-5-2-2-2-2-2-2------------------------|
|---------------------------3-3-3-3-3-5-5-5-5-5-5--|
|--------------------------------------------------|


|--------------------------------------------------|
|--------------------------------------------------|
|--5-5-5-5-5-5-6-6-6-6-6-6-7-7-7-7-7-6-------------|
|--------------------------------------------------|


|---------------------------------------------------|
|---------------------------------------------------|
|--------------7-7-7-5-5-5-5-0-0-0-0-0-0-0-0-0-0-0--|
|--0-0-0-0-0-0--------------------------------------|


|---------------------------------------------------|
|---------------------------------------------------|
|--------------7-7-7-5-5-5-5-0-0-0-0-0-0-0-0-0-0-0--|
|--0-0-0-0-0-0--------------------------------------|


|---------------------------------------------------|
|---------------------------------------------------|
|--------------7-7-7-5-5-5-5-0-0-0-0-0-0-0-0-0-0-0--|
|--0-0-0-0-0-0--------------------------------------|


|---------------------------------------------------|
|---------------------------------------------------|
|--------------7-7-7-5-5-5-5-0-0-0-0-0-0-0-0-0-0-0--|
|--0-0-0-0-0-0--------------------------------------|


|--------------------|
|--------------------|
|--------------------|
|--0-0-0-0-0---------|
Comments