Travis - U16 Girls Chords & Tabs

 

U16 Girls Chords & Tabs

Travis Chords & Tabs

Version: 1 Type: Tab 0 ratings
1 star 2 stars 3 stars 4 stars 5 stars
comments

U16 Girls Tab

   
Travis: Good Feeling: U16 Girls

Tabbed by Stephen Reid

Pre-Intro

(Em D Am) X2

Intro

Em Am
Nananananana


Verse

(Em D Am) X2


Em B D Am C D


Chorus

(G Em C D) X2


G B C Cm

Intro
Verse
Chorus

b  - bend down
^  - bend up
h  - hammer on
p  - pull off
() - hit the note in brackets while bent up/down 

Solo:

E ---------------------------------------------
B ---------------------------------------------
G -----------------------------7^(9)p5---------
D --7bp5----------5---------7-----------h7-----
A --------7--5h7-----7p5h7---------------------
E ---------------------------------------------
[ Tab from: http://www.guitartabs.cc/tabs/t/travis/u16_girls_tab.html ]
E ---------------------------------------------
B ---------------------------------------------
G ---------------------------------------------
D ----------------5~----7----------------------
A ---------5h6h7------7^-^(9)7--5--------------
E --5h6h7--------------------------------------

E -------10-----------------------------10------------------------
B --10^------(12)--10--8-----8-----10^------(12)--10--8-----8-----
G ------------------------9-----9------------------------9-----9--
D ----------------------------------------------------------------
A ----------------------------------------------------------------
E ----------------------------------------------------------------

E -------------------------------------10---10---
B -------------------------------------10^--10^--
G -----------------------------------------------
D ------------------------------5--7b------------
A ---------5h6h7---------5h6h7-------------------
E --5h6h7---------5h6h7--------------------------

E ---------------------------------------------
B ---------------------------------------------
G ---------------------------------------------
D ------------------------5--7-7b--5~----------
A --7-----7p6h7--6--7--9-----------------------
E -----7---------------------------------------


Pre-Chorus

C D


Chorus

Intro



guitarium@hotmail.com
Comments