Travis - The Connection Chords & Tabs

 

The Connection Chords & Tabs

Travis Chords & Tabs

Version: 2 Type: Bass Tab 0 ratings
1 star 2 stars 3 stars 4 stars 5 stars
comments

The Connection Bass Tab

Song: "The Connection" [BASS TAB]
Artist: Travis
Album: Coming Around [CD1]
Tabbed By: Kris Heding [RadioheadChick@aol.com]
More Travis bass tabs can be found at The Groovy Dougie Fan Club [http://members.aol.com/groovydougie]
If you want to use this tab on a website, please ask my permission! Thanks!

(Drums start out)

|------------------------------------------|
|--1-1--1-1-0------------------------------|
|-------------3-3--3-3------------0-1-1-1--|
|----------------------0-3-3--3-3----------|


|------------------------------------------|
|--1-1--1-1-0------------------------------|
|-------------3-3--3-3------------0-1-1-1--|
|----------------------0-3-3--3-3----------|


|------------------------------------------|
|--1-1--1-1-0------------------------------|
|-------------3-3--3-3------------0-1-1-1--|
|----------------------0-3-3--3-3----------|


|------------------------------------------|
|--1-1--1-1-0------------------------------|
|-------------3-3--3-3------------0-1-1-1--|
|----------------------0-3-3--3-3----------|


|-----------------------------------------|
|--------------------1-1--1-1-0-----------|
|-------------------------------3-3--3-3--|
|--4-4-4-4-4-4-4-4-4----------------------|


|-----------------------------------|
|-----------------------------------|
|-----------------------------------|
|--1-1-1-1-1--1-1-1-1-1--1-1-1-1-1--|


|-----------------------------------|
|-----------------------------------|
|--1-1-1-1-1--1-1-1-1-1--1-1-1-1-1--|
|-----------------------------------|


|------------------------------------------|
|--1-1--1-1-0------------------------------|
|-------------3-3--3-3------------0-1-1-1--|
|----------------------0-3-3--3-3----------|


|------------------------------------------|
|--1-1--1-1-0------------------------------|
|-------------3-3--3-3------------0-1-1-1--|
|----------------------0-3-3--3-3----------|


|-----------------------------------------|
|--------------------1-1--1-1-0-----------|
|-------------------------------3-3--3-3--|
|--4-4-4-4-4-4-4-4-4----------------------|


|-----------------------------------|
|-----------------------------------|
|-----------------------------------|
|--1-1-1-1-1--1-1-1-1-1--1-1-1-1-1--|


|-----------------------------------|
|-----------------------------------|
|--1-1-1-1-1--1-1-1-1-1--1-1-1-1-1--|
|-----------------------------------|

[ Tab from: http://www.guitartabs.cc/tabs/t/travis/the_connection_btab_ver_2.html ]
|------------------------------------------|
|--1-1--1-1-0------------------------------|
|-------------3-3--3-3------------0-1-1-1--|
|----------------------0-3-3--3-3----------|

|------------------------------------------|
|--1-1--1-1-0------------------------------|
|-------------3-3--3-3------------0-1-1-1--|
|----------------------0-3-3--3-3----------|

|-----------------------------------------|
|--------------------1-1--1-1-0-----------|
|-------------------------------3-3--3-3--|
|--4-4-4-4-4-4-4-4-4----------------------|

|-----------------------------------|
|-----------------------------------|
|-----------------------------------|
|--1-1-1-1-1--1-1-1-1-1--1-1-1-1-1--|

|-----------------------------------|
|-----------------------------------|
|------------------------1-1-1-1-1--|
|--1-1-1-1-1--1-1-1-1-1-------------|

|------------------------------------------|
|--1-1--1-1-0------------------------------|
|-------------3-3--3-3------------0-1-1-1--|
|----------------------0-3-3--3-3----------|


|------------------------------------------|
|--1-1--1-1-0------------------------------|
|-------------3-3--3-3------------0-1-1-1--|
|----------------------0-3-3--3-3----------|


|-----------------------------------------|
|--------------------1-1--1-1-0-----------|
|-------------------------------3-3--3-3--|
|--4-4-4-4-4-4-4-4-4----------------------|


|-----------------------------------|
|-----------------------------------|
|-----------------------------------|
|--1-1-1-1-1--1-1-1-1-1--1-1-1-1-1--|


|-----------------------------------|
|-----------------------------------|
|--1-1-1-1-1--1-1-1-1-1--1-1-1-1-1--|
|-----------------------------------|


|------------------------------------------|
|--1-1--1-1-0------------------------------|
|-------------3-3--3-3------------0-1-1-1--|
|----------------------0-3-3--3-3----------|


|------------------------------------------|
|--1-1--1-1-0------------------------------|
|-------------3-3--3-3------------0-1-1-1--|
|----------------------0-3-3--3-3----------|


|------------------------------------------|
|--1-1--1-1-0------------------------------|
|-------------3-3--3-3------------0-1-1-1--|
|----------------------0-3-3--3-3----------|


|------------------------------------------|
|--1-1--1-1-0------------------------------|
|-------------3-3--3-3------------0-1-1-1--|
|----------------------0-3-3--3-3----------|

Comments