Travis - Sing Chords & Tabs

 

Sing Chords & Tabs

Travis Chords & Tabs

Version: 2 Type: Tab 0 ratings
1 star 2 stars 3 stars 4 stars 5 stars
comments

Sing Tab

   
This tab is played in a banjo  but i tried to make it sound in my guitar 
 I play this tab in the verse (not in the chorus ) 

Capo on 2nd fret 


while one guitar is playing the chord the other must play this : 

Riff 1: Em (Baby you've been going so crazy)

e|----------2h-------2h------------2h---------2h-|
B|-----------------------------------------------|
G|------3--------3-----------3-----------3-------|
D|----0--------------------0---------------------|
A|--0--------------------0-----------------------|
E|-----------------------------------------------|


Riff 2 : Am (Lately nothing seems to be going right )
[ Tab from: http://www.guitartabs.cc/tabs/t/travis/sing_tab_ver_2.html ]
e|-----------5h------5h-----------5h---------5h--|
B|-----------------------------------------------|
G|------5--------5------------5---------5--------|
D|----0---------------------0--------------------|
A|--0---------------------0----------------------|
E|-----------------------------------------------|

First 3 notes in each riff are played very fast.

Em                             Am
Baby you've been going so crazy
 					 Em
Lately nothing seems to be going right
Em                              Am
So low, why'd you have to get so low?
							    Em
You're so, You've been waiting in the sun too long



This is one of my favourite songs so I really  hope itīs all right ,enjoy . bye 

by Pepa R.M.
Comments