Travis - Side Chords & Tabs

 

Side Chords & Tabs

Travis Chords & Tabs

Version: 4 Type: Chords 0 ratings
1 star 2 stars 3 stars 4 stars 5 stars
comments

Side Chords

   
Travis,side.
 Tabbed by christoffer wessman, Chris19@spray.se.
  
side by travis

Transcribed by: Christoffer Rosvall Wessman

Chords used: (Capo on third thret)

Em  (022000)
C   (x32010)
D   (xx0232)
G   (320033)
D/F#(200232) 
  

Intro
-----
Em   (with riff)
 
 e----5--3---3--------------------------------------------------
 B--3------6----------------------------------------------------
 G--------------------------------------------------------------
 D--------------------------------------------------------------
 A--------------------------------------------------------------
 E--------------------------------------------------------------

Verse 1
-------
   Em                                               C  
Well I believe there's someone watching over you

   D                                              Em                  
They're watching everything single thing you say

                                                    C         
And when you die they'll set you down and take you through

                        D
You'll realise one day how...........

Chorus
------
 G        
That the grass is always greener on the otherside

 D/F#
The neighbour's got a new car that you wanna drive

 Em                                                C                            
And when time is running out you want to stay alive....
[ Tab from: http://www.guitartabs.cc/tabs/t/travis/side_crd_ver_4.html ]
 D
We all live under the same sky, we all will live, we all will die, there is no 

                                                      Em                              
wrong, there is no right, the circle only has one side.

verse 2
------
 Em                                            C
We all try hard to live our lives in harmony

 D                                    Em               
For fear of falling swiftly overboard

                                       C            
But life is both a major and a minor key 


 D
Just open up the chord.....

Chorus
------
   G  D/F#  Em  C D  Em  

Musical interlude
------
  Em C  Em  C  Em  C (with riff)......then  D 
 
 e--10-8---------------------------------------------------------
 B-------11-10-8------------------------------------------------
 G--------------------------------------------------------------
 D--------------------------------------------------------------
 A--------------------------------------------------------------
 E--------------------------------------------------------------
 
Chorus
------
   G  D/F#  Em  C  D  Em


Ending
------
   Em


Enjoy


Chris

Questions, comments, corrections, requests to chris19@spray.se


 
:: Ultimate Guitar Archive :: 
http://www.ultimate-guitar.com 



Comments