Travis - Side Chords & Tabs

 

Side Chords & Tabs

Travis Chords & Tabs

Version: 1 Type: Bass Tab 0 ratings
1 star 2 stars 3 stars 4 stars 5 stars
comments

Side Bass Tab

   
PLAY IN DROP D TUNING

G---------------}
D---------------}                                        intro
A---------------}
D-0-3/5-7-5-3-5-}

G---------------------------------10--------}
D-----3---3-5--------8-10---10/12-----12-10-}              verse
A---5---5-----6-6-6-------8-----------------}
D-5-----------------------------------------}

G-----------}
D-----------}
A-----------}                                           interlude
D-5-5-5-3-5-}
[ Tab from: http://www.guitartabs.cc/tabs/t/travis/side_btab.html ]
G-----------------}
D-----------------}
A-8-8-8-8-8-8-8-8-}                                     preparation
D-----------------}

G---------------------------------------------------}
D-----------------------------------333333333333333-}
A-11111111-00000000---------------------------------}   Chorus
D------------------55555555-11111111----------------}

G-------------}
D-----3---3-5-}
A---5---5-----}              outro
D-5-----------}

Order to play in:
REST
INTRO X 2
VERSE
INTERLUDE
VERSE
PREPARATION
CHORUS
INTRO X 4
REST
PREPERATION
CHORUS X 2
INTRO X 4
OUTRO TILL END
Comments