Travis - Re Offender Chords & Tabs

 

Re Offender Chords & Tabs

Travis Chords & Tabs

Version: 6 Type: Tab 0 ratings
1 star 2 stars 3 stars 4 stars 5 stars
comments

Re Offender Tab

----------------------------------------------------------------------------
			    Re-offender - Travis
----------------------------------------------------------------------------
Tabbed by: Gwynnster

Intro & Outro
[ Tab from: http://www.guitartabs.cc/tabs/t/travis/re_offender_tab_ver_6.html ]
e|-------------------------------------------------------------------------|
B|------0---0---3----3------------0---0------0-----------0--0---3-----3----|
G|-2/4------------4-----4----4\2---------2------2----0-------------4-----4-|
D|-------------------------------------------------------------------------|
A|-------------------------------------------------------------------------|
E|-------------------------------------------------------------------------|

e|-------------------------------------------------------------------------|
B|-------0---0-------0-----------------------------------------------------|
G|-4\2------------2-----2--------------------------------------------------|
D|-------------------------------------------------------------------------|
A|-------------------------------------------------------------------------|
E|-------------------------------------------------------------------------|
Comments