Travis - Re Offender Chords & Tabs

 

Re Offender Chords & Tabs

Travis Chords & Tabs

Version: 5 Type: Tab 0 ratings
1 star 2 stars 3 stars 4 stars 5 stars
comments

Re Offender Tab

   
-------------------------------------------------------------------------------
			     RE-OFFENDER - Travis
-------------------------------------------------------------------------------
Tabbed by:tareK
Email:sk4lman@hotmail.com

Tuning:EADGBE

[Chords]
A  0 0 2 2 2 0
Bm x 2 4 4 3 2
Em 0 2 2 0 0 0
G  3 2 0 0 0 3

[Riff A]
e|--------------------------------------------------------------------------|
B|------0---0-3---3------0--0----0------0--0-3---3------0--0----0-----------|
G|---2/4--------4---4-4/2------2---2--0--------4---4-4/2------2---2---------|
D|--------------------------------------------------------------------------|
A|--------------------------------------------------------------------------|
E|--------------------------------------------------------------------------|

[Riff B]
e|------------2---2---------0-----0-----------0-----0-----------0-----0-----|
B|------0---0---0---0----0------0---0------0------0---0------0------0---0---|
G|---2/4--------------4/2---------------4/2---------------4/2---------------|
D|--------------------------------------------------------------------------|
A|--------------------------------------------------------------------------|
E|--------------------------------------------------------------------------|

[Riff C]
e|------------2-------------0-------------------0---------------0-----------|
B|------0---0---0---0----0------0---0------0--0---0---0------0------0---0---|
G|---2/4----------2---4/2---------2-----4/2---------0-----4/2---------2-----|
D|--------------------------------------------------------------------------|
A|--------------------------------------------------------------------------|
E|--------------------------------------------------------------------------|


[Riff D]
e|------------2---2---------0-------------------0-----------------0---------|
B|------0---0---0---0----0------0---0------0--0----0---0------0------0---0--|
G|---2/4--------------4/2---------2-----4/2----------0-----4/2---------2----|
D|--------------------------------------------------------------------------|
A|--------------------------------------------------------------------------|
E|--------------------------------------------------------------------------|

[Chorus Riff]
e|--5/7-7-7-7-7---7/9-9--9/10-10-10-------5/7-7-7-7-7---7/9-9--9/10-10-10---|
B|--5/7-7-7-7-7---7/9-9--9/10-10-10-------5/7-7-7-7-7---7/9-9--9/10-10-10---|
G|--------------------------------------------------------------------------|
D|--------------------------------------------------------------------------|
A|--------------------------------------------------------------------------|
E|--------------------------------------------------------------------------|




-Intro-

2x [Riff A]



-Verse 1-
[ Tab from: http://www.guitartabs.cc/tabs/t/travis/re_offender_tab_ver_5.html ]
Bm                  A	      	
Keeping up appearances          /
G                       Em     /
Keeping up with the Joneses   /
Bm                    A      |  2x [Riff B] Over Top
Fooling my selfish heart      \
G                     Em       \
Going through the motions       \
Em                A
But I'm fooling myself
    Em          A
I'm fooling myself



-Chorus-

          Bm            G
Cause you say you love me
                    Em               G
And then you do it again, you do it again
    Bm           G
You say you're sorry
                    Em               G
And then you do it again, you do it again



-Verse 2-

Bm                         A	
Everybody thinks you're well   /
G                      Em     /
Everybody thinks I'm ill     /
Bm                  A	    | 2x [Riff C] Over Top
Watching me fall apart       \	
G                     Em      \
Falling under your spell       \
           Em           A	
But you're fooling yourself
       Em           A
You're fooling yourself



-Chorus-

          Bm            G
Cause you say you love me
                    Em               G
And then you do it again, you do it again
    Bm           G
You say you're sorry
                    Em               G
And then you do it again, you do it again
And again and again and again and again



-Solo-

1x [Riff A]
1x [Riff D]



-Chorus-

           Em          A
But you're fooling yourself
       Em          A
You're fooling yourself
          Bm            G
Cause you say you love me
                    Em               G
And then you do it again, you do it again
    Bm           G
You say you're sorry
                    Em               G
And then you do it again, you do it again
          Bm            G
Cause you say you love me
                    Em               G
And then you do it again, you do it again
    Bm           G
You say you're sorry
                    Em               G
And then you do it again, you do it again
And again and again and again and again



-End-

1x Half of [Riff A]

By:		a spanish guy called finrod (the chorus riff)
		and
		another guy called Nick W (the rest)
Modified by: 	tareK


| /  slide up
| \  slide down
| h  hammer-on
| p  pull-off
| ~  vibrato
| +  harmonic
| x  Mute note
===============================================================================
Comments