Travis - Re Offender Chords & Tabs

 

Re Offender Chords & Tabs

Travis Chords & Tabs

Version: 4 Type: Tab 0 ratings
1 star 2 stars 3 stars 4 stars 5 stars
comments

Re Offender Tab

   
Travis - Re-Offender

Intro:
e |-------------------------------------------------------------------------|
b |--------3----3-----------------------------------------------------------|
g |--1/4--4--4----4-----4--------1/4--4--4--2--4--2-------------------------|
d |-------------------------------------------------------------------------|
a |-------------------------------------------------------------------------|
e1|-------------------------------------------------------------------------|

Verse:
Bm                   A
Keeping up appearances
G                       Em
Keeping up with the Jones'
Bm                    A
Fooling my selfish heart
G                       Em 
Going through the motions
Em                A
But I'm fooling myself
    Em          A
I'm fooling myself

Chorus:
          Bm            G
Cause you say you love me
                    Em               G
And then you do it again, you do it again
    Bm           G
You say your sorry's
                    Em               G
And then you do it again, you do it again

Verse:
Bm                         A
Everybody thinks you're well
G                      Em
Everybody thinks I'm ill
Bm                  A
Watching me fall apart
G                     Em
Falling under your spell
           Em           A
But you're fooling yourself
       Em           A
You're fooling yourself
[ Tab from: http://www.guitartabs.cc/tabs/t/travis/re_offender_tab_ver_4.html ]
Chorus:
          Bm            G
Cause you say you love me
                    Em               G
And then you do it again, you do it again
    Bm           G
You say your sorry's
                    Em               G
And then you do it again, you do it again
And again and again and again and again

Solo: play riff 1 twice then riff 2 once and back to riff 1 once

riff 1
e |-------------------------------------------------------------------------|
b |--------3----3-----------------------------------------------------------|
g |--1/4--4--4----4-----4--------1/4--4--4--2--4--2-------------------------|
d |-------------------------------------------------------------------------|
a |-------------------------------------------------------------------------|
e1|-------------------------------------------------------------------------|

riff 2
e |-------------------------------------------------------------------------|
b |--------5----5-----------------------------------------------------------|
g |--1/4--4--4----4-----4--------1/4--4--4--2--4--2-------------------------|
d |-------------------------------------------------------------------------|
a |-------------------------------------------------------------------------|
e1|-------------------------------------------------------------------------|

Chorus:
           Em          A
But you're fooling yourself
       Em          A
You're fooling yourself
          Bm            G
Cause you say you love me
                    Em               G
And then you do it again, you do it again
    Bm           G
You say your sorry's
                    Em               G
And then you do it again, you do it again
          Bm            G
Cause you say you love me
                    Em               G
And then you do it again, you do it again
    Bm           G
You say your sorry's
                    Em               G
And then you do it again, you do it again
And again and again and again and again
Comments