Travis - Re Offender Chords & Tabs

 

Re Offender Chords & Tabs

Travis Chords & Tabs

Version: 2 Type: Tab 1 rating
1 star 2 stars 3 stars 4 stars 5 stars
comments

Re Offender Tab

Travis - Re-Offender Intro
By magictom - comments/complaints/thanks?(magictom123@yahoo.com)
                                      
------------------------------------
---------3---3----------------------
-----------4---4---------4---4------    (x4) then
-----4---------------4-----4---4----
-0h2---2---------0h2----------------
------------------------------------
[ Tab from: http://www.guitartabs.cc/tabs/t/travis/re_offender_tab_ver_2.html ]
---------2---2--------------------------------------------------
-----------3---3--------3---3----------3---3-----------3---3----  (x2)
--------------------------4---4----------4---4-----------4---4--
-----4---------------4--------------4---------------4-----------
-0h2---2---------0h2------------0h2------------ 0h2-------------
----------------------------------------------------------------
At this point the singing starts...



Sounds right to me

Enjoy
Comments