Travis - Hazy Shades Of Gold Chords & Tabs

 

Hazy Shades Of Gold Chords & Tabs

Travis Chords & Tabs

Version: 2 Type: Bass Tab 0 ratings
1 star 2 stars 3 stars 4 stars 5 stars
comments

Hazy Shades Of Gold Bass Tab

Song: "Hazy Shades Of Gold" [BASS TAB]
Artist: Travis
Album: U16 Girls [Single]
Tabbed By: Kris Heding [RadioheadChick@aol.com]
More Travis bass tabs can be found at The Groovy Dougie Fan Club [http://members.aol.com/groovydougie]
If you want to use this tab on a website, please ask my permission! Thanks!

|-------------------------------------------------|
|-------------------------------------------------|
|--7-7-7-7-7-7-7-7-7-5-5-5-5-5-7-7-7-7-7-7-7-7-7--|
|-------------------------------------------------|

(Intro)

|-----------------------------|
|-----------------------------|
|--5-5-5-5-5-7-7-7-7-7-7-7-7--|
|-----------------------------|


|-----------------------------|
|-----------------------------|
|--5-5-5-5-5-7-7-7-7-7-7-7-7--|
|-----------------------------|


|---------------------------------------|
|---------------------------------------|
|---------------------------------------|
|--7-7-7-7-7-7-5-5-5-5-0-0-0-0-0-0-0-0--|


|-----------------------------|
|-----------------------------|
|--5-5-5-5-5-7-7-7-7-7-7-7-7--|
|-----------------------------|


|-----------------------------|
|-----------------------------|
|--5-5-5-5-5-7-7-7-7-7-7-7-7--|
|-----------------------------|


|---------------------------------------|
|---------------------------------------|
|---------------------------------------|
|--7-7-7-7-7-7-5-5-5-5-0-0-0-0-0-0-0-0--|


|---------------------------------------|
|---------------------------------------|
|---------------------------------------|
|--7-7-7-7-7-7-5-5-5-5-0-0-0-0-0-0-0-0--|


|---------------------------------------|
|---------------------------------------|
|--4-4-4-4-4-4-4-4-4-4-4-4-6-6-7-7-7-7--|
|---------------------------------------|


|---------------------------------------|
|--6-6-6-6-6-6-6-6-6-6-6-6-7-7-7-7-7-7--|
|---------------------------------------|
|---------------------------------------|


|-------------------|
|-------------------|
|--9-9-9-9-9-9-9-9--|
|-------------------|


|-----------------------------|
|-----------------------------|
|--5-5-5-5-5-7-7-7-7-7-7-7-7--|
|-----------------------------|


|-----------------------------|
|-----------------------------|
|--5-5-5-5-5-7-7-7-7-7-7-7-7--|
|-----------------------------|


|---------------------------------------|
|---------------------------------------|
|---------------------------------------|
|--7-7-7-7-7-7-5-5-5-5-0-0-0-0-0-0-0-0--|

[ Tab from: http://www.guitartabs.cc/tabs/t/travis/hazy_shades_of_gold_btab_ver_2.html ]
|---------------------------------------|
|---------------------------------------|
|---------------------------------------|
|--7-7-7-7-7-7-5-5-5-5-0-0-0-0-0-0-0-0--|


|---------------------------------------|
|---------------------------------------|
|---------------------------------------|
|--7-7-7-7-7-7-5-5-5-5-0-0-0-0-0-0-0-0--|


|---------------------------------------|
|---------------------------------------|
|---------------------------------------|
|--7-7-7-7-7-7-5-5-5-5-0-0-0-0-0-0-0-0--|


|---------------------------------------|
|---------------------------------------|
|--4-4-4-4-4-4-4-4-4-4-4-4-6-6-7-7-7-7--|
|---------------------------------------|

(Solo)

|---------------------------------------|
|--6-6-6-6-6-6-6-6-6-6-6-6-7-7-7-7-7-7--|
|---------------------------------------|
|---------------------------------------|

|-------------------|
|-------------------|
|--9-9-9-9-9-9-9-9--|
|-------------------|

|-----------------------------|
|-----------------------------|
|--5-5-5-5-5-7-7-7-7-7-7-7-7--|
|-----------------------------|


|-----------------------------|
|-----------------------------|
|--5-5-5-5-5-7-7-7-7-7-7-7-7--|
|-----------------------------|


|---------------------------------------|
|---------------------------------------|
|---------------------------------------|
|--7-7-7-7-7-7-5-5-5-5-0-0-0-0-0-0-0-0--|


|---------------------------------------|
|---------------------------------------|
|---------------------------------------|
|--7-7-7-7-7-7-5-5-5-5-0-0-0-0-0-0-0-0--|


|---------------------------------------|
|---------------------------------------|
|---------------------------------------|
|--7-7-7-7-7-7-5-5-5-5-0-0-0-0-0-0-0-0--|


|---------------------------------------|
|---------------------------------------|
|---------------------------------------|
|--7-7-7-7-7-7-5-5-5-5-0-0-0-0-0-0-0-0--|


|---------------------------------------|
|---------------------------------------|
|--4-4-4-4-4-4-4-4-4-4-4-4-6-6-7-7-7-7--|
|---------------------------------------|


|---------------------------------------|
|--6-6-6-6-6-6-6-6-6-6-6-6-7-7-7-7-7-7--|
|---------------------------------------|
|---------------------------------------|


|-------------------|
|-------------------|
|--9-9-9-9-9-9-9-9--|
|-------------------|


|-------------------------------------------------|
|-------------------------------------------------|
|--7-7-7-7-7-7-7-7-7-5-5-5-5-5-7-7-7-7-7-7-7-7-7--|
|-------------------------------------------------|

(Continue until end of song)
Comments