Travis - Happy Chords & Tabs

 

Happy Chords & Tabs

Travis Chords & Tabs

Version: 2 Type: Bass Tab 0 ratings
1 star 2 stars 3 stars 4 stars 5 stars
comments

Happy Bass Tab

Song: "Happy" [BASS TAB]
Artist: Travis
Album: Good Feeling
Tabbed By: Kris Heding [RadioheadChick@aol.com]
More Travis bass tabs can be found at The Groovy Dougie Fan Club [http://members.aol.com/groovydougie]
If you want to use this tab on a website, please ask my permission! Thanks!

(Guitar starts)

|---------------------------------------------|
|--------------------------------------3-2-0--|
|--3-3-3-3-3-3-3-3-3-3-3-3-3-3-3-3-3-3--------|
|---------------------------------------------|

(Intro)

|---------------------------------------------|
|--------------------------------------3-2-0--|
|--3-3-3-3-3-3-3-3-3-3-3-3-3-3-3-3-3-3--------|
|---------------------------------------------|


|---------------------------------------------|
|--------------------------------------3-2-0--|
|--3-3-3-3-3-3-3-3-3-3-3-3-3-3-3-3-3-3--------|
|---------------------------------------------|


|-------------------|
|-------------------|
|--3-3-3-3-3-3-3-3--|
|-------------------|


|-------------------|
|--3-3-3-3-3-3-3-3--|
|-------------------|
|-------------------|


|-----------------------------------|
|-----------------------------------|
|--3-3-3-3---------3-3-3-3-3-3-3-3--|
|----------3-3-3-3------------------|


|---------------------------------------------|
|--------------------------------------3-2-0--|
|--3-3-3-3-3-3-3-3-3-3-3-3-3-3-3-3-3-3--------|
|---------------------------------------------|


|---------------------------------------------|
|--------------------------------------3-2-0--|
|--3-3-3-3-3-3-3-3-3-3-3-3-3-3-3-3-3-3--------|
|---------------------------------------------|


|-----------------|
|--3-3-3-3-3-3-3--|
|-----------------|
|-----------------|


|---------------------------------------------|
|---------------------------------------------|
|--3-3-3-3-3-3-3-3-3-3-3-3-3-3-3-3-3-3-3-3-3--|
|---------------------------------------------|


|-----------------------------------|
|--5-5-5-5-5-5-5-5-3-3-3-3-3-3-3-3--|
|-----------------------------------|
|-----------------------------------|


|----------------------------|
|----------------------------|
|--3-3-3-3-3-3-3-3-3-3-3-----|
|-------------------------3--|


|-----------------------------------|
|--3-3-3-3-3-3-3-3------------------|
|------------------3-3-3-3-3-3-3-3--|
|-----------------------------------|


|-----------------------------------|
|--3-3-3-3-3-3-3-3------------------|
|------------------3-3-3-3-3-3-3-3--|
|-----------------------------------|


|-------------------------------------------------|
|--3-3-3-3-3-3-3-3-3-0-0-0-0-3-3-3-3-3-3-3-3-3-3--|
|-------------------------------------------------|
|-------------------------------------------------|


|-------------------------------|
|--3-3-3-5-5-5-5-5-5-5-5-5-5-5--|
|-------------------------------|
|-------------------------------|

[ Tab from: http://www.guitartabs.cc/tabs/t/travis/happy_btab_ver_2.html ]
|---------------------------------------------|
|--------------------------------------3-2-0--|
|--3-3-3-3-3-3-3-3-3-3-3-3-3-3-3-3-3-3--------|
|---------------------------------------------|


|---------------------------------------------|
|--------------------------------------3-2-0--|
|--3-3-3-3-3-3-3-3-3-3-3-3-3-3-3-3-3-3--------|
|---------------------------------------------|


|-------------------|
|-------------------|
|--3-3-3-3-3-3-3-3--|
|-------------------|


|-------------------|
|--3-3-3-3-3-3-3-3--|
|-------------------|
|-------------------|


|-----------------------------------|
|-----------------------------------|
|--3-3-3-3---------3-3-3-3-3-3-3-3--|
|----------3-3-3-3------------------|


|---------------------------------------------|
|--------------------------------------3-2-0--|
|--3-3-3-3-3-3-3-3-3-3-3-3-3-3-3-3-3-3--------|
|---------------------------------------------|


|---------------------------------------------|
|--------------------------------------3-2-0--|
|--3-3-3-3-3-3-3-3-3-3-3-3-3-3-3-3-3-3--------|
|---------------------------------------------|


|-----------------|
|--3-3-3-3-3-3-3--|
|-----------------|
|-----------------|


|---------------------------------------------|
|---------------------------------------------|
|--3-3-3-3-3-3-3-3-3-3-3-3-3-3-3-3-3-3-3-3-3--|
|---------------------------------------------|


|-----------------------------------|
|--5-5-5-5-5-5-5-5-3-3-3-3-3-3-3-3--|
|-----------------------------------|
|-----------------------------------|


|----------------------------|
|----------------------------|
|--3-3-3-3-3-3-3-3-3-3-3-----|
|-------------------------3--|


|----------------------------|
|----------------------------|
|--3-3-3-3-3-3-3-3-3-3-3-----|
|-------------------------3--|


|--------------------------------------|
|--------------------------------------|
|--3-3-3-3--3-3-3-3--3-3-3-3--3-3-3-3--|
|--------------------------------------|

|--------------------------------------|
|--------------------------------------|
|--3-3-3-3--3-3-3-3--3-3-3-3--3-2-0----|
|-----------------------------------3--|

|--------------------------------------|
|--------------------------------------|
|--------------------------------------|
|--1-1-1-1--3-3-3-3--5-5-5-5--8-8-8-8--|

|--------------------------------------|
|--------------------------------------|
|--3-3-3-3--3-3-3-3--3-3-3-3--3-3-3-3--|
|--------------------------------------|

|-----------------------------------|
|--5-5-5-5-5-5-5-5-3-3-3-3-3-3-3-3--|
|-----------------------------------|
|-----------------------------------|


|-----------------------------------|
|--5-5-5-5-5-5-5-5-3-3-3-3-3-3-3-3--|
|-----------------------------------|
|-----------------------------------|


|-----------------------------------|
|--5-5-5-5-5-5-5-5-3-3-3-3-3-3-3-3--|
|-----------------------------------|
|-----------------------------------|


|----------------------------|
|----------------------------|
|--3-3-3-3-3-3-3-3-3-3-3-----|
|-------------------------3--|


|-------|
|-------|
|----3--|
|--3----|
Comments