Travis - Good Feeling Chords & Tabs

 

Good Feeling Chords & Tabs

Travis Chords & Tabs

Version: 1 Type: Bass Tab 0 ratings
1 star 2 stars 3 stars 4 stars 5 stars
comments

Good Feeling Bass Tab

Song: "Good Feeling" [BASS TAB]
Artist: Travis
Album: Good Feeling
Tabbed By: Kris Heding [RadioheadChick@aol.com]
More Travis bass tabs can be found at The Groovy Dougie Fan Club [http://members.aol.com/groovydougie]
If you want to use this tab on a website, please ask my permission! Thanks!

|----------------------------------------------|
|-----------------------2-------------------0--|
|--0---0---0-3---3---0----0-----0-0-0-0---2----|
|----0---0-----3---3--------0-4---------3------|


|----------------------------------------------|
|-----------------------2-------------------0--|
|--0---0---0-3---3---0----0-----0-0-0-0---2----|
|----0---0-----3---3--------0-4---------3------|


|----------------------------------------------|
|-----------------------2-------------------0--|
|--0---0---0-3---3---0----0-----0-0-0-0---2----|
|----0---0-----3---3--------0-4---------3------|


|----------------------------------------------|
|-----------------------2-------------------0--|
|--0---0---0-3---3---0----0-----0-0-0-0---2----|
|----0---0-----3---3--------0-4---------3------|


|----------------------------------------------|
|-----------------------2-------------------0--|
|--0---0---0-3---3---0----0-----0-0-0-0---2----|
|----0---0-----3---3--------0-4---------3------|


|----------------------------------------------|
|-----------------------2-------------------0--|
|--0---0---0-3---3---0----0-----0-0-0-0---2----|
|----0---0-----3---3--------0-4---------3------|


|-----|
|-----|
|-----|
|--1--|


|-----|
|-----|
|--0--|
|-----|

[ Tab from: http://www.guitartabs.cc/tabs/t/travis/good_feeling_btab.html ]
|-----|
|-----|
|-----|
|--1--|


|-----|
|-----|
|--0--|
|-----|


|---------------------------------------|
|---------------------------------------|
|--------------------0-0-0-0-0-0-0-0-0--|
|--1-1-1-1-1-1-1-1-1--------------------|


|---------------------------------------|
|---------------------------------------|
|--------------------7-7-7-7-7-7-7-7-7--|
|--1-1-1-1-1-1-1-1-1--------------------|


|-----------------------------------------------|
|-----------------------------------------------|
|--3-3-3-2-2-2-0-0-0-------3-3-3-2-2-2-0-0-0-8--|
|--------------------3-3-3----------------------|


|------------------------------------------|
|-----------------------2------------------|
|--0---0---0-3---3---0----0-----0-0-0-0----|
|----0---0-----3---3--------0-4---------3--|

|------------------------------------------|
|-----------------------2------------------|
|--0---0---0-3---3---0----0-----0-0-0-0----|
|----0---0-----3---3--------0-4---------3--|

(Solo part)

|-----|
|-----|
|--0--|
|-----|


|-----|
|-----|
|-----|
|--3--|


|-----|
|-----|
|-----|
|--4--|


|-------------|
|-------------|
|--0-0-0-0----|
|----------3--|


|--------------------------|
|--------------------------|
|--0--2--3--5--7--5--3--2--|
|--------------------------|


|---------------------|
|---------------------|
|----2---2--0--0-0----|
|--0---0-----------3--|


|------------|
|------------|
|--0--0-0----|
|---------3--|


|-----------------------|
|-----------------------|
|--0--0-0---------------|
|---------3----3--4--5--|


Comments