Travis - As You Are Chords & Tabs

 

As You Are Chords & Tabs

Travis Chords & Tabs

Version: 1 Type: Bass Tab 0 ratings
1 star 2 stars 3 stars 4 stars 5 stars
comments

As You Are Bass Tab

Song: "As You Are" [BASS TAB]
Artist: Travis
Album: The Man Who
Tabbed By: Kris Heding [RadioheadChick@aol.com]
[More Travis bass tabs can be found at The Groovy Dougie Fan Club http://members.aol.com/groovydougie]
If you want to use this tab on a website, please ask my permission! Thanks!

|--------------------------------------------------|
|--1--1--1--1--1--1--1--1--1--1--1--1--1--1--1--1--|
|--------------------------------------------------|
|--------------------------------------------------|

(Intro)

|--------------------------------------------------|
|--1--1--1--1--1--1--1--1--5--5--5--5--------------|
|--------------------------------------1--1--1--1--|
|--------------------------------------------------|


|--------------------------------------------------|
|-----------------------------------------0--1-----|
|--1--1--1--1--1--1--1--1--1--1--1--1--1-----------|
|--------------------------------------------------|


|--------------------------------------------------|
|--1--1--1--1--1--1--1--1--5--5--5--5--------------|
|--------------------------------------1--1--1--1--|
|--------------------------------------------------|


|--------------------------------------------------|
|--------------------------------------------------|
|--1--1--1--1--1--1--1--1--1--1--1--1--1--1--1--1--|
|--------------------------------------------------|


|--------------------------------------------------|
|--------------------------------------------------|
|--1--1--1--1--1--1--1--1--1--1--1--1--1--1--1--1--|
|--------------------------------------------------|


|--------------------------------------------------|
|--------------------------------------------------|
|--------------------------------------------------|
|--4--4--4--4--4--4--4--4--8--8--8--8--8--8--8--8--|


|--------------------------------------------------|
|--------------------------------------------------|
|--8--8--8--8--8--8--8--8--8--8--8--8--8-----------|
|--------------------------------------------------|


|--------------------------------------------------|
|--1--1--1--1--1--1--1--1--5--5--5--5--------------|
|--------------------------------------1--1--1--1--|
|--------------------------------------------------|


|--------------------------------------------------|
|-----------------------------------------0--1-----|
|--1--1--1--1--1--1--1--1--1--1--1--1--1-----------|
|--------------------------------------------------|


|--------------------------------------------------|
|--1--1--1--1--1--1--1--1--5--5--5--5--------------|
|--------------------------------------1--1--1--1--|
|--------------------------------------------------|


|--------------------------------------------------|
|--------------------------------------------------|
|--1--1--1--1--1--1--1--1--1--1--1--1--1--1--1--1--|
|--------------------------------------------------|


|--------------------------------------------------|
|--------------------------------------------------|
|--1--1--1--1--1--1--1--1--1--1--1--1--1--1--1--1--|
|--------------------------------------------------|

[ Tab from: http://www.guitartabs.cc/tabs/t/travis/as_you_are_btab.html ]
|--------------------------------------------------|
|--------------------------------------------------|
|--------------------------------------------------|
|--4--4--4--4--4--4--4--4--8--8--8--8--8--8--8--8--|


|--------------------------------------------------|
|--------------------------------------------------|
|--8--8--8--8--6--6--6--6--5--5--5--5--3--3--3--3--|
|--------------------------------------------------|


|--------------------------------------------------|
|--------------------------------------------------|
|--8--8--8--8--6--6--6--6--5--5--5--5--3--3--3--3--|
|--------------------------------------------------|

(Solo)

|--------------------------------------------------|
|--1--1--1--1--1--1--1--1--5--5--5--5--------------|
|--------------------------------------1--1--1--1--|
|--------------------------------------------------|

|--------------------------------------------------|
|-----------------------------------------0--1-----|
|--1--1--1--1--1--1--1--1--1--1--1--1--1-----------|
|--------------------------------------------------|

|--------------------------------------------------|
|--1--1--1--1--1--1--1--1--5--5--5--5--------------|
|--------------------------------------1--1--1--1--|
|--------------------------------------------------|

|--------------------------------------------------|
|--------------------------------------------------|
|--1--1--1--1--1--1--1--1--1--1--1--1--1--1--1--1--|
|--------------------------------------------------|

|--------------------------------------------------|
|--------------------------------------------------|
|--1--1--1--1--1--1--1--1--1--1--1--1--1--1--1--1--|
|--------------------------------------------------|

|--------------------------------------------------|
|--------------------------------------------------|
|--------------------------------------------------|
|--4--4--4--4--4--4--4--4--8--8--8--8--8--8--8--8--|

|--------------------------------------------------|
|--------------------------------------------------|
|--8--8--8--8--6--6--6--6--5--5--5--5--3--3--3--3--|
|--------------------------------------------------|

|--------------------------------------------------|
|--------------------------------------------------|
|--8--8--8--8--6--6--6--6--5--5--5--5--3--3--3--3--|
|--------------------------------------------------|

|--------------------------------------------------|
|--1--1--1--1--1--1--1--1--5--5--5--5--------------|
|--------------------------------------------------|
|--------------------------------------4--4--4--4--|


|--------------------------------------------------|
|--5--5--5--5--------------5--5--5--5--------------|
|--------------------------------------------------|
|--------------4--4--4--4--------------4--4--4--4--|


|--------------------------------------------------|
|--------------------------------------------------|
|--------------------------------------------------|
|--4--4--4--4--4--4--4--4--------------------------|


|--------------------------------------------------|
|----1---1---1---1---1---1---1---1---1-------------|
|--1---1---2---2---3---3---2---2---1---1-----------|
|--------------------------------------------------|


|-------------|
|--1----------|
|-------------|
|-------------|

(Ending note)

Comments